PrimaNota.ru - самый крупный в мире бесплатный архив песенных текстов, аккордов, табулатур и нот


The Advantage - Castlevania 2 - Woods - таба, видео

Регистрация Запомнить меня
Войти через:  Facebook Google Twitter Vk Yandex Mail.ru

The Advantage - Castlevania 2 - Woods - таба, видео

Печатать
Просмотров: 66
The Advantage - Castlevania 2 - Woods
The Advantage (2004)
Tabbed by ruker (Varuker@gmail.com)
Standard Tuning EADGBE


Left Guitar - Upper
Right Guitar - Lower

||-------------------------------------------------------------------|
||*-----18--16------------------------------16-----------------------|
||--15----------18--17--18--17--15--17--18------18--17------17--15---|
||----15--15--15--15--15--15--15--15--15--15--15--15--151815--15--15-|
||*------------------------------------------------------------------|
||-------------------------------------------------------------------|
|                                                                    |
|                                                                    |
||-------------------------------------------------------------------|
||*-----18--16------------------------------16-----------------------|
||--15----------18--17--18--17--15--17--18------18--17------17--15---|
||----15--15--15--15--15--15--15--15--15--15--15--15--151815--15--15-|
||*------------------------------------------------------------------|
||-------------------------------------------------------------------|



|------------------------------------------------------------------|
|-----18--16------------------------------16-----------------------|
|-15----------18--17--18--17--15--17--18------18--17------17--15---|
|---15--15--15--15--15--15--15--15--15--15--15--15--151815--15--15-|
|------------------------------------------------------------------|
|------------------------------------------------------------------|
|                                                                  |
|                                                                  |
|------------------------------------------------------------------|
|-----18--16------------------------------16-----------------------|
|-15----------18--17--18--17--15--17--18------18--17------17--15---|
|---15--15--15--15--15--15--15--15--15--15--15--15--151815--15--15-|
|------------------------------------------------------------------|
|------------------------------------------------------------------|



|-----16------------------------------------16----------------------|
|-16-----18-----16---------------------16--------18--------16-------|
|--------------------------18--16------------------------------18---|
|----------------------------------18-------------------------------|
|-------------------------------------------------------------------|
|-------------------------------------------------------------------|
|                                                                   |
|                                                                   |
|-----13------------------------------------13----------------------|
|-13-----14----------------------------13--------14--------13-------|
|--------------------------------------------------------------15---|
|--------------------------13--15-----------------------------------|
|-------------15-13-15-16-------------------------------------------|
|-------------------------------------------------------------------|



|-----16-----------------------------------16---------------------|
|-16-----18-------------------16--18--19-----------18---19--------|
|-----------------------------------------------------------------|
|-----------------------------------------------------------------|
|-----------------------------------------------------------------|
|-----------------------------------------------------------------|
|                                                                 |
|                                                                 |
|-----13----------------------------------------------------------|
|-13-----14---------------------------13---13---------------------|
|-----------------------------13--14---------------15---15--------|
|------------13----13-15--16--------------------------------------|
|---------------16------------------------------------------------|
|-----------------------------------------------------------------|



|-----16------------------------------------16----------------------|
|-16-----18-----16---------------------16--------18--------16-------|
|--------------------------18--16------------------------------18---|
|----------------------------------18-------------------------------|
|-------------------------------------------------------------------|
|-------------------------------------------------------------------|
|                                                                   |
|                                                                   |
|-----13------------------------------------13----------------------|
|-13-----14----------------------------13--------14--------13-------|
|--------------------------------------------------------------15---|
|--------------------------13--15-----------------------------------|
|-------------15-13-15-16-------------------------------------------|
|-------------------------------------------------------------------|



|-----16-----------------------------------16----------------17--20---|
|-16-----18-------------------16--18--19-----------18---19------------|
|---------------------------------------------------------------------|
|---------------------------------------------------------------------|
|---------------------------------------------------------------------|
|---------------------------------------------------------------------|
|                                                                     |
|                                                                     |
|-----13--------------------------------------------------------------|
|-13-----14---------------------------13---13-------------------------|
|-----------------------------13--14---------------15---15------------|
|------------13----13-15--16------------------------------------------|
|---------------16----------------------------------------------------|
|---------------------------------------------------------------------|



|--------------------------------------------------------------------------|
|-13-13-----------13-13-----------13-13-----------14-14-13-13--------------|
|--------15---15---------15---15---------15---15--------------15-15-13-13--|
|--------------------------------------------------------------------------|
|--------------------------------------------------------------------------|
|--------------------------------------------------------------------------|
|                                                                          |
|                                                                          |
|--------------------------------------------------------------------------|
|-------------------------------------------------14-14-13-13--------------|
|-------------------------------------------------------------15-15-13-13--|
|-13-13-----------13-13-----------13-13------------------------------------|
|--------16---16---------16---16---------16---16---------------------------|
|--------------------------------------------------------------------------|



|--------18--------------18--------------18------------------------||
|-13-13-----------13-13-----------13-13-----------14--16--13-14---*||
|------------------------------------------------------------------||
|------------------------------------------------------------------||
|-----------------------------------------------------------------*||
|------------------------------------------------------------------||
|                                                                   |
|                                                                   |
|------------------------------------------------------------------||
|--------14--------------14--------------14-------14--16--13-14---*||
|------------------------------------------------------------------||
|-13-13-----------13-13-----------13-13----------------------------||
|-----------------------------------------------------------------*||
|------------------------------------------------------------------||



||------------------------------------------------------------------|
||-----18--16------------------------------16-----------------------|
||-15----------18--17--18--17--15--17--18------18--17------17--15---|
||---15--15--15--15--15--15--15--15--15--15--15--15--151815--15--15-|
||------------------------------------------------------------------|
||------------------------------------------------------------------|
|                                                                   |
|                                                                   |
||------------------------------------------------------------------|
||-----18--16------------------------------16-----------------------|
||-15----------18--17--18--17--15--17--18------18--17------17--15---|
||---15--15--15--15--15--15--15--15--15--15--15--15--151815--15--15-|
||------------------------------------------------------------------|
||------------------------------------------------------------------|



|------------------------------------------------------------------|
|-----18--16------------------------------16-----------------------|
|-15----------18--17--18--17--15--17--18------18--17------17--15---|
|---15--15--15--15--15--15--15--15--15--15--15--15--151815--15--15-|
|------------------------------------------------------------------|
|------------------------------------------------------------------|
|                                                                  |
|                                                                  |
|------------------------------------------------------------------|
|-----18--16------------------------------16-----------------------|
|-15----------18--17--18--17--15--17--18------18--17------17--15---|
|---15--15--15--15--15--15--15--15--15--15--15--15--151815--15--15-|
|------------------------------------------------------------------|
|------------------------------------------------------------------|



|--------------------------||
|--------------------------||
|-15-----------------------||
|--------------------------||
|--------------------------||
|--------------------------||
|                           |
|                           |
|--------------------------||
|--------------------------||
|-15-----------------------||
|--------------------------||
|--------------------------||
|--------------------------||
Добавлено: 16.11.2013
Другие материалы по этой песне:
  • Аккорды и текст

Страница создана 16.11.2013
http://primanota.ru/the-advantage/castlevania-2-woods-chords.htm
Привет, Гость.
Предлагаем пройти революционный курс по гитаре.
Подарок от PrimaNota.Ru, забирай!