PrimaNota.ru - самый крупный в мире бесплатный архив песенных текстов, аккордов, табулатур и нот


The Advantage - Bionic Commando - Pow Camp - таба, видео

Регистрация Запомнить меня
Войти через:  Facebook Google Twitter Vk Yandex Mail.ru

The Advantage - Bionic Commando - Pow Camp - таба, видео

Печатать
Просмотров: 59
The Advantage - Bionic Commando - P.O.W. Camp
The Advantage (2004)
Tabbed by ruker
Standard Tuning EADGBE


 Left Guitar
||---------------------------------------------------------------------------|
||*-10-10-10-9--9--9--7--7--7--9--9--9--10-10-10-9--9--9--7--7--7--9--9--9---|
||---------------------------------------------------------------------------|
||---------------------------------------------------------------------------|
||*--------------------------------------------------------------------------|
||---------------------------------------------------------------------------|
|                                                                            |
|Right Guitar                                                                |
||--9--9--9--7--7--7-----------7--7--7--9--9--9--7--7--7-----------7--7--7---|
||*-------------------10-10-10----------------------------10-10-10-----------|
||---------------------------------------------------------------------------|
||---------------------------------------------------------------------------|
||*--------------------------------------------------------------------------|
||---------------------------------------------------------------------------|
|                                                                            |
|Bass                                                                        |
||---------------------------------------------------------------------------|
||*--------------------------------------------------------------------------|
||*-14----------------------14----------14-------------------14----14----14--|
||---------------------------------------------------------------------------|



|--------------------------------------------------------------------------|
|-9--9--9--7--7--7-----------7--7--7--9--9--9--7--7--7-----------7--7--7---|
|-------------------9--9--9-----------------------------9--9--9------------|
|--------------------------------------------------------------------------|
|--------------------------------------------------------------------------|
|--------------------------------------------------------------------------|
|                                                                          |
|                                                                          |
|-7--7--7-----------------------------7--7--7------------------------------|
|----------10-10-10-9--9--9--10-10-10----------10-10-10-9--9--9--10-10-10--|
|--------------------------------------------------------------------------|
|--------------------------------------------------------------------------|
|--------------------------------------------------------------------------|
|--------------------------------------------------------------------------|
|                                                                          |
|                                                                          |
|--------------------------------------------------------------------------|
|-14----------------------14----------14-------------------14----14----14--|
|--------------------------------------------------------------------------|
|--------------------------------------------------------------------------|



|--------------------------------------------------------------------------|
|-7--7--7------------------------------------------------------------------|
|----------9--9--9--7--7--7--9--9--9--7--7--7--6--6--6---------------------|
|-------------------------------------------------------9--9--9--6--6--6---|
|--------------------------------------------------------------------------|
|--------------------------------------------------------------------------|
|                                                                          |
|                                                                          |
|--------------------------------------------------------------------------|
|-10-10-10-9--9--9--7--7--7--9--9--9--7--7--7------------------------------|
|----------------------------------------------10-10-10-7--7--7--6--6--6---|
|--------------------------------------------------------------------------|
|--------------------------------------------------------------------------|
|--------------------------------------------------------------------------|
|                                                                          |
|                                                                          |
|--------------------------------------------------------------------------|
|-12----------------------12----------11-------------------11----11----11--|
|--------------------------------------------------------------------------|
|--------------------------------------------------------------------------|



|--------------------------------------------------------------------------|
|--------------------------------------------------------------------------|
|--------------------------------------------------------------------------|
|----------------------------------------------------------------6-----6---|
|-9--9--9--9--9--9--6--6--6--6--6--6--6-----6--8--6--8--9--8--9-----9------|
|----------------------------------------9---------------------------------|
|                                                                          |
|                                                                          |
|--------------------------------------------------------------------------|
|--------------------------------------------------------------------------|
|--------------------------------------------------------------------------|
|-7--7--7--------------------------------------------------------6-----6---|
|----------6--6--6-----------6--6--6--6-----6--8--6--8--9--8--9-----9------|
|-------------------9--9--9--------------9---------------------------------|
|                                                                          |
|                                                                          |
|--------------------------------------------------------------------------|
|-10----------------------10-------------11----11----11----11----11----11--|
|--------------------------------------------------------------------------|
|-------------------------------------------9-----9-----9-----9-----9------|



|--------------------------------------------------------------------------|
|-10-10-10-9--9--9--7--7--7--9--9--9--10-10-10-9--9--9--7--7--7--9--9--9---|
|--------------------------------------------------------------------------|
|--------------------------------------------------------------------------|
|--------------------------------------------------------------------------|
|--------------------------------------------------------------------------|
|                                                                          |
|                                                                          |
|-9--9--9--7--7--7-----------7--7--7--9--9--9--7--7--7-----------7--7--7---|
|-------------------10-10-10----------------------------10-10-10-----------|
|--------------------------------------------------------------------------|
|--------------------------------------------------------------------------|
|--------------------------------------------------------------------------|
|--------------------------------------------------------------------------|
|                                                                          |
|                                                                          |
|--------------------------------------------------------------------------|
|--------------------------------------------------------------------------|
|-14----------------------14----------14-------------------14----14----14--|
|--------------------------------------------------------------------------|



|--------------------------------------------------------------------------|
|-9--9--9--7--7--7-----------7--7--7--9--9--9--7--7--7-----------7--7--7---|
|-------------------9--9--9-----------------------------9--9--9------------|
|--------------------------------------------------------------------------|
|--------------------------------------------------------------------------|
|--------------------------------------------------------------------------|
|                                                                          |
|                                                                          |
|-7--7--7-----------------------------7--7--7------------------------------|
|----------10-10-10-9--9--9--10-10-10----------10-10-10-9--9--9--10-10-10--|
|--------------------------------------------------------------------------|
|--------------------------------------------------------------------------|
|--------------------------------------------------------------------------|
|--------------------------------------------------------------------------|
|                                                                          |
|                                                                          |
|--------------------------------------------------------------------------|
|-14----------------------14----------14-------------------14----14----14--|
|--------------------------------------------------------------------------|
|--------------------------------------------------------------------------|



|-8--8--8--7--7--7-----------7--7--7---------------------------------------|
|-------------------10-10-10----------10-10-10-9--9--9--7--7--7--9--9--9---|
|--------------------------------------------------------------------------|
|--------------------------------------------------------------------------|
|--------------------------------------------------------------------------|
|--------------------------------------------------------------------------|
|                                                                          |
|                                                                          |
|-12-12-12-10-10-10-8--8--8--10-10-10-8--8--8--7--7--7-----------7--7--7---|
|-------------------------------------------------------10-10-10-----------|
|--------------------------------------------------------------------------|
|--------------------------------------------------------------------------|
|--------------------------------------------------------------------------|
|--------------------------------------------------------------------------|
|                                                                          |
|                                                                          |
|--------------------------------------------------------------------------|
|-15----------------------15----------14-------------------14----14----14--|
|--------------------------------------------------------------------------|
|--------------------------------------------------------------------------|



|---------------------------------------------------------------------------||
|-10----------------------------------8--8--8--8--8--8--8--8--8--8--8--8---*||
|---------------------------------------------------------------------------||
|---------------------------------------------------------------------------||
|--------------------------------------------------------------------------*||
|---------------------------------------------------------------------------||
|                                                                            |
|                                                                            |
|-9-----------------------------------9--9--9--9--9--9--9--9--9--9--9--9----||
|--------------------------------------------------------------------------*||
|---------------------------------------------------------------------------||
|---------------------------------------------------------------------------||
|--------------------------------------------------------------------------*||
|---------------------------------------------------------------------------||
|                                                                            |
|                                                                            |
|----14----14----14----14----14----14---------------------------------------||
|--------------------------------------------------------------------------*||
|-12----12----12----12----12----12----13-13-13-13-13-13-13-13-13-13-13-13--*||
|---------------------------------------------------------------------------||



||--------------------------------------------------------------------------|
||-10-10-10-9--9--9--7--7--7--9--9--9--10-10-10-9--9--9--7--7--7--9--9--9---|
||--------------------------------------------------------------------------|
||--------------------------------------------------------------------------|
||--------------------------------------------------------------------------|
||--------------------------------------------------------------------------|
|                                                                           |
|                                                                           |
||-9--9--9--7--7--7-----------7--7--7--9--9--9--7--7--7-----------7--7--7---|
||-------------------10-10-10----------------------------10-10-10-----------|
||--------------------------------------------------------------------------|
||--------------------------------------------------------------------------|
||--------------------------------------------------------------------------|
||--------------------------------------------------------------------------|
|                                                                           |
|                                                                           |
||--------------------------------------------------------------------------|
||--------------------------------------------------------------------------|
||-14----------------------14----------14-------------------14----14----14--|
||--------------------------------------------------------------------------|



|--------------------------------------------------------------------------|
|-9--9--9--7--7--7-----------7--7--7--9--9--9--7--7--7-----------7--7--7---|
|-------------------9--9--9-----------------------------9--9--9------------|
|--------------------------------------------------------------------------|
|--------------------------------------------------------------------------|
|--------------------------------------------------------------------------|
|                                                                          |
|                                                                          |
|-7--7--7-----------------------------7--7--7------------------------------|
|----------10-10-10-9--9--9--10-10-10----------10-10-10-9--9--9--10-10-10--|
|--------------------------------------------------------------------------|
|--------------------------------------------------------------------------|
|--------------------------------------------------------------------------|
|--------------------------------------------------------------------------|
|                                                                          |
|                                                                          |
|--------------------------------------------------------------------------|
|-14----------------------14----------14-------------------14----14----14--|
|--------------------------------------------------------------------------|
|--------------------------------------------------------------------------|



|--------------------------------------------------------------------------|
|-7--7--7------------------------------------------------------------------|
|----------9--9--9--7--7--7--9--9--9--7--7--7--6--6--6---------------------|
|-------------------------------------------------------9--9--9--6--6--6---|
|--------------------------------------------------------------------------|
|--------------------------------------------------------------------------|
|                                                                          |
|                                                                          |
|--------------------------------------------------------------------------|
|-10-10-10-9--9--9--7--7--7--9--9--9--7--7--7------------------------------|
|----------------------------------------------10-10-10-7--7--7--6--6--6---|
|--------------------------------------------------------------------------|
|--------------------------------------------------------------------------|
|--------------------------------------------------------------------------|
|                                                                          |
|                                                                          |
|--------------------------------------------------------------------------|
|-12----------------------12----------11-------------------11----11----11--|
|--------------------------------------------------------------------------|
|--------------------------------------------------------------------------|



|--------------------------------------------------------------------------|
|--------------------------------------------------------------------------|
|--------------------------------------------------------------------------|
|----------------------------------------------------------------6-----6---|
|-9--9--9--9--9--9--6--6--6--6--6--6--6-----6--8--6--8--9--8--9-----9------|
|----------------------------------------9---------------------------------|
|                                                                          |
|                                                                          |
|--------------------------------------------------------------------------|
|--------------------------------------------------------------------------|
|--------------------------------------------------------------------------|
|-7--7--7--------------------------------------------------------6-----6---|
|----------6--6--6-----------6--6--6--6-----6--8--6--8--9--8--9-----9------|
|-------------------9--9--9--------------9---------------------------------|
|                                                                          |
|                                                                          |
|--------------------------------------------------------------------------|
|-10----------------------10-------------11----11----11----11----11----11--|
|--------------------------------------------------------------------------|
|-------------------------------------9-----9-----9-----9-----9-----9------|



|--------------------------------------------------------------------------||
|-10----------------------10----------10-----------------------------------||
|--------------------------------------------------------------------------||
|--------------------------------------------------------------------------||
|--------------------------------------------------------------------------||
|--------------------------------------------------------------------------||
|                                                                           |
|                                                                           |
|-9-----------------------9-----------9------------------------------------||
|--------------------------------------------------------------------------||
|--------------------------------------------------------------------------||
|--------------------------------------------------------------------------||
|--------------------------------------------------------------------------||
|--------------------------------------------------------------------------||
|                                                                           |
|                                                                           |
|--------------------------------------------------------------------------||
|--------------------------------------------------------------------------||
|-14----------------------14----------14-----------------------------------||
|--------------------------------------------------------------------------||
Добавлено: 22.11.2013
Другие материалы по этой песне:

Страница создана 24.02.2012
http://primanota.ru/the-advantage/bionic-commando-pow-camp-chords.htm
Привет, Гость.
Предлагаем пройти революционный курс по гитаре.
Подарок от PrimaNota.Ru, забирай!