PrimaNota.ru - самый крупный в мире бесплатный архив песенных текстов, аккордов, табулатур и нот


The Academy Is - Rumored Nights - аккорды и текст, таба, видео

Регистрация Запомнить меня
Войти через:  Facebook Google Twitter Vk Yandex Mail.ru

The Academy Is - Rumored Nights - аккорды и текст, таба, видео

Печатать
Просмотров: 87
Rumored Nights
The Academy Is
Artist: The Academy Is…
Song: Rumored Nights
Album: Fast Times At Barrington High
Tabbed by: Don Tago
Email: recebedou@yahoo.com


Standard Tuning: (Capo II) (All tabs and chords relative to capo)

Chords:
    EADGBe
Am: 002210
Bm:2244--
C:  032010
C5: 3355--
D5: 5577--
F:  122311
G:  320033


Intro Chords/Tabs:
  Am                      G                    Am
e|------------------------------------------------------------------|
B|------------------------------------------------------------------|
G|-------0----------0----------4----------4----------4---------4----|
D|---2-----2----2-----2----5-----5----5-----5----5-----5---5-----5--| then,
A|-0---0------0---0------3---3------3---3------5---5-----5---5------|
E|------------------------------------------------------------------|

    G
e|--0-0-0-0-------------------------------|
B|--1-1-1-1-------------------------------|
G|--2-2-2-2--4-4-4-4---5-5-5-5---7-7-7-7--|
D|--2-2-2-2--4-4-4-4---5-5-5-5---7-7-7-7--|
A|--0-0-0-0--2-2-2-2---3-3-3-3---5-5-5-5--|
E|--0-0-0-0--2-2-2-2---3-3-3-3---5-5-5-5--|

Verse 1 Chords:
Am                             G                                 Am
   I walked you home most days   to beat the traffic after class
                            G                                Am
With all my best intentions.   But when the weather changed, 
                                   G
like fine print, you were hard to read.
                              Am Bm   C5     D5    
Blind-folded, eyes wide open, staring through me.

Pre-Chorus Chords:
F                     G                     C
  I never heard the words that were spoken,
                    G                         F
With the rumored nights, with the rendezvous.
                     G                      Am
I never thought the whispers were true ‘til now…

Chorus Chords:
Am      C             Am            G
I saw things that I shouldn't have tonight, tonight.
Am      C           Am 
I know now what I couldn't have,
              G               F
I've gone too far to turn it back
              Am              G
I've gone too far to turn it back

Verse 2: Use verse 1 Chords
Followed you home halfway, over the fence to your backyard,
With all my best intentions.
And through your window frame, outstretched and lying on your bed,
Blind-folded, eyes wide open, staring through me.

Pre-Chorus Chords:
I never heard the words that were spoken,
with the rumored nights, with the rendezvous.
I never look at you like I used to now

Chorus Chords:
I saw things that I shouldn't have tonight, tonight.
I know now what I couldn't have,
I've gone too far to turn it back
I've gone too far to turn it back

Solo: (played over chords of course)
   Am                         C        G
e|----------------------------------------------------------------|
B|--------------1-1-1-1-1-1-1-1-1-1-------------------------------|
G|--4-4-4-2-2-2---------------------0-0-0-0-0---------------------| then,
D|--------------------------------------------2-2-0-0-0-0-0-0-0-0-| 
A|----------------------------------------------------------------|
E|----------------------------------------------------------------|

   Am                                  C            G
e|--------------------------------12-12-12-12-10-10-10-10-7-7-3-3-3-3-3-3-|
B|--------------1-1-1-1-1-1-1-1-1-----------------------------------------|
G|--4-4-4-2-2-2-----------------------------------------------------------|
D|------------------------------------------------------------------------| 
A|------------------------------------------------------------------------|
E|------------------------------------------------------------------------|

Bridge:
    C                               G                 F   
Uninvited, no one knows how much I care, how bad you are,
              C
How good we'd be, but you won't let me in
    G 
Goodnight I'm leaving.

Pre-Chorus Chords:
I never heard the words that were spoken,
with the rumored nights, with the rendezvous.
I never thought the whispers were true ‘til now…

Chorus Chords:
I saw things that I shouldn't have tonight, tonight.
I know now what I couldn't have,
I've gone too far to turn it back
I saw things that I shouldn't have tonight, tonight.
I know now what I couldn't have,
I've gone too far to turn it back

Outro:
Am               C             Am           G               Am
   I walked you home most days,   I had the best intentions 
              C             Am            G              
I walked you home most days,   I had the best intentions
Am
    I walked you home most days...

Outro Riff: (repeat 5x) (played over last Am until fade out)
e|-------------------|
B|------3---1-3---1--|
G|----2---2-----2----|
D|--2----------------| 
A|-------------------|
E|-------------------|
Добавлено: 11.05.2012
Другие материалы по этой песне:
  • Аккорды и текст

Страница создана 11.05.2012
http://primanota.ru/the-academy-is/rumored-nights-chords.htm
Привет, Гость.
Предлагаем пройти революционный курс по гитаре.
Подарок от PrimaNota.Ru, забирай!