PrimaNota.ru - самый крупный в мире бесплатный архив песенных текстов, аккордов, табулатур и нот


The Academy Is - Days Like Masquerades - таба, видео

Регистрация Запомнить меня
Войти через:  Facebook Google Twitter Vk Yandex Mail.ru

The Academy Is - Days Like Masquerades - таба, видео

Печатать
Просмотров: 137
Уроки эстрадного вокала в Санкт-Петербурге
Band: The Academy Is
Song Title: Days Like Masquerades
Album: Lost in Pacific Time EP

Fun song to play, I wanted to point out that I have no clue how the bridge goes and also 
when playing the first part of the verse, you let that chord ring and then rest until 
end of the verse and then play the next chord tabbed. Thats about it.

Intro:
E------------------------------------------------------------|
B------------------------------------------------------------|
G-----14---12-12---12-12-12-12-12-12-------------------------|
D------x----x--x----x--x--x--x--x--x-------------------------| x2
A-----12---10-10---10-10-10-10-10-10-------------------------|
E------------------------------------------------------------|

Verse:
E----------------|         E----------------|
B----------------|         B----------------|
G----------------|         G-----5~---------|
D-----5~---------|         D-----5~---------|
A-----5~---------|         A-----3~---------|
E-----3~---------|         E----------------|

Chorus:
E------------------------------------------------------------|
B-------------7---------5------------------------------------|
G-------------7---------5------------------------------------|
D--------5----5----2----3------------------------------------| x4
A--------5---------2-----------------------------------------|
E--------3---------0-----------------------------------------|

Lyrics:
I said, “Hey you, this is me.
The idealist inside that holds your love on a string,
wound and tied like kites to all your hopes and dreams
What a tangled mess that they've turned out to be
Take a breath, and ask yourself what matters.”

Days like masquerades, silent, hiding in the shadows,
Stripped of their disguise leave you haunted as you scatter
But you're always on my mind
You're always on my mind

When you feel lost out at sea,
surrounded by on equal sides the same routine,
Becoming what you swore you'd never be
Don't distress, there's a big bright place if you stay close to me
Take a breath, and I'll show you what matters

You're always on my mind
You're always on my mind

Days like masquerades, take a breath and feel what matters
Days like masquerades, take a breath and feel what matters
Days like masquerades, take a breath and feel what matters

Take a breath and feel it
Добавлено: 17.05.2012
Другие материалы по этой песне:
  • Аккорды и текст

Страница создана 17.03.2012
http://primanota.ru/the-academy-is/days-like-masquerades-chords.htm
Привет, Гость.
Предлагаем пройти революционный курс по гитаре.
Подарок от PrimaNota.Ru, забирай!