PrimaNota.ru - самый крупный в мире бесплатный архив песенных текстов, аккордов, табулатур и нот


The Absence - World Divides - таба, видео

Регистрация Запомнить меня
Войти через:  Facebook Google Twitter Vk Yandex Mail.ru

The Absence - World Divides - таба, видео

Печатать
Просмотров: 119
Уроки эстрадного вокала в Санкт-Петербурге
Artist: The Absence
Song: World Divides
Album: Riders of the Plague

Tuning: C Standard (C F Bb Eb G C)

THIS TAB SUCKS!  DON'T LOOK AT IT!

Seriously...this is old and inaccurate, and I'm not going to update.

Intro
||------------------------------------------------------|
||o-----------------------------------------------------|
||------------------------------------------------------|
||--9p8--------------6h8p6h8----14----12----------------|
||o----------------------------------------14--13---10--|
||------000000000000---------------000---00--00---------|
PM      ------------               ---   --  --

||---------------------------------------------------------|
||o--------------------------------------------------------|
||---------------------------------------------------------|
||--9p8--------------6h8p6h8----9-----10--------5--5--5-5--|
||o-----------------------------7-77776-666666663333333-3--|
||------000000000000---------------------------------------|
PM      ------------              ----  -------- -- --

Play those lines 3 times.

||---------------------------------------------------|
||o--------------------------------------------------|
||---------------------------------------------------|
||--9p8-----------6h8p6h8----14----12----------------|
||o-------------------------------------14--13---10--|
||------0-000-000---------------000---00--00---------|
PM      - --- ---               ---   --  --

||-------------------------------------------------------|
||o------------------------------------------------------|
||-------------------------------------------------------|
||--9p8-----------6h8p6h8----9-----10---------5--5--5-5--|
||o--------------------------7-77776--666666663333333-3--|
||------0-000-000----------------------------------------|
PM      - --- ---              ----   -------- -- --

Play those lines 1 time.

||-------------------------------------------|
||o------------------------------------------|
||-------------------------------------------|
||-------------------------------------------|
||o-2-----2---2---3-2-----2-------2---2---3--|
||--0-0-0-0-0-0-0-1-0-0-0-0-0-0-0-0-0-0-0-1--|
PM    - -   -   -     - -   - - -   -   -

||-------------------------------|
||o------------------------------|
||-------------------------------|
||-------------------------------|
||o-----2---2---3---3-3-3-3-5-5--|
||--0-0-0-0-0-0-1-0-1-1-1-1-3-3--|
PM  - -   -   -   -

Play those lines 2 times.



Verse
||-----------------------------------------------------------------|
||o----------------------------------------------------------------|
||-----------------------------------------------------------------|
||-----------------------------------------------------------------|
||o-2-----2---2---3-2-----2---2---3-2-----2---2---3-2-3-3-3-3-5-5--|
||--0-0-0-0-0-0-0-1-0-0-0-0-0-0-0-1-0-0-0-0-0-0-0-1-0-1-1-1-1-3-3--|
PM    - -   -   -     - -   -   -     - -   -   -

Play that line 2 times.



Chorus
||-------------------------------|
||o------------------------------|
||-------------------------------|
||--9\8-----8-------6---6---6/8--|
||o-7\6-----6-------4---4---4/6--|
||------0-0---0-0-0---0---0------|
PM      - -   - - -   -   -

||-------------------------------|
||o------------------------------|
||-------------------------------|
||--9\8-----8--------------------|
||o-7\6-----6-----7\5------------|
||------0-0---0-0-5\3--0-1-3-1-0-|
PM      - -   - -      - - - - -

||-------------------------------|
||o------------------------------|
||-------------------------------|
||--9\8-----8-------6---6---6/8--|
||o-7\6-----6-------4---4---4/6--|
||------0-0---0-0-0---0---0------|
PM      - -   - - -   -   -

||-------------------------------|
||o------------------------------|
||-------------------------------|
||--9\8-----8-------5---5---5-5--|
||o-7\6-----6-------3---3---3-3--|
||------0-0---0-0-0---0---0------|
PM      - -   - - -   -   -

Play those lines 2 times.



Post-Chorus
||-------------------------------------------------|
||o------------------------------------------------|
||-------------------------------------------------|
||--9p8-----------6h8p6h8----14----12--------------|
||o------------------------------------14-13---10--|
||------0-000-000---------------000---0--0---------|
PM      - --- ---               ---   --  --

||-------------------------------------------------------|
||o------------------------------------------------------|
||-------------------------------------------------------|
||--9p8-----------6h8p6h8----9-----10---------5--5--5-5--|
||o--------------------------7-77776--666666663333333-3--|
||------0-000-000----------------------------------------|
PM      - --- ---              ----   -------- -- --

Play those lines 2 times.



Verse
||-----------------------------------------------------------------|
||o----------------------------------------------------------------|
||-----------------------------------------------------------------|
||-----------------------------------------------------------------|
||o-2-----2---2---3-2-----2---2---3-2-----2---2---3-2-3-3-3-3-5-5--|
||--0-0-0-0-0-0-0-1-0-0-0-0-0-0-0-1-0-0-0-0-0-0-0-1-0-1-1-1-1-3-3--|
PM    - -   -   -     - -   -   -     - -   -   -

Play that line 2 times.



Chorus
||-------------------------------|
||o------------------------------|
||-------------------------------|
||--9\8-----8-------6---6---6/8--|
||o-7\6-----6-------4---4---4/6--|
||------0-0---0-0-0---0---0------|
PM      - -   - - -   -   -

||-------------------------------|
||o------------------------------|
||-------------------------------|
||--9\8-----8--------------------|
||o-7\6-----6-----7\5------------|
||------0-0---0-0-5\3--0-1-3-1-0-|
PM      - -   - -      - - - - -

||-------------------------------|
||o------------------------------|
||-------------------------------|
||--9\8-----8-------6---6---6/8--|
||o-7\6-----6-------4---4---4/6--|
||------0-0---0-0-0---0---0------|
PM      - -   - - -   -   -

||-------------------------------|
||o------------------------------|
||-------------------------------|
||--9\8-----8-------5---5---5-5--|
||o-7\6-----6-------3---3---3-3--|
||------0-0---0-0-0---0---0------|
PM      - -   - - -   -   -

Play those lines 2 times.



Bridge
     1
||--|-|----------------------------------|
||o-|-|----------------------------------|
||--|-|----------------------------------|
||--|5|-----5-----5-----5-----5---5---5--|
||o-|3|-33333-33333-33333-33333-333-333--|
||--|-|----------------------------------|
PM      ----  ----  ----  ----  --  --

Play that line 2 times.

||---------------------------------------|
||o--------------------------------------|
||---------------------------------------|
||---------------------------------------|
||o-11-----12-----14-----15-----14---12--|
||-----0000---0000---0000---0000---00----|
PM     ----   ----   ----   ----   --

||------------------------------------|
||o-----------------------------------|
||------------------------------------|
||------------------------------------|
||o-11-----12-----17----15----14--12--|
||-----0000---0000--------------------|
PM     ----   ----

Play those lines 1 time (there is a harmony 1 octave up).

     1
||--|-|----------------------------------|
||o-|-|----------------------------------|
||--|-|----------------------------------|
||--|5|-----5-----5-----5-----5---5---5--|
||o-|3|-3-3-3-3-3-3-3-3-3-3-3-3-3-3-3-3--|
||--|-|----------------------------------|
PM      - -   - -   - -   - -   -   -

Play that line 2 times.

||---------------------------------------|
||o--------------------------------------|
||---------------------------------------|
||---------------------------------------|
||o-11-----12-----14-----15-----14---12--|
||-----0-0----0-0----0-0----0-0----0-----|
PM     - -    - -    - -    - -    -

||------------------------------------|
||o-----------------------------------|
||------------------------------------|
||------------------------------------|
||o-11-----12-----17----15----14--12--|
||-----0-0----0-0---------------------|
PM     - -    - -

Play those lines 1 time (there is a harmony 1 octave up).



Solo (Rhythm Guitar)
||--------------------------------------|
||o-------------------------------------|
||--------------------------------------|
||--5------5---5------5---5------5---5--|
||o-3------3-3-3------3-3-3------3-3-3--|
||--------------------------------------|
PM           -          -          -

||------------------------------------------|
||o-----------------------------------------|
||------------------------------------------|
||--5---3------3---3------3---3------3---3--|
||o-3-3-1------1-1-1------1-1-1------1-1-1--|
||------------------------------------------|
PM    -          -          -          -

Play those lines 1 time.

||-----------------------------------|
||o----------------------------------|
||-----------------------------------|
||--5---5---5-5-----5---5---5-5------|
||o-3-3-3-3-3-3-3-3-3-3-3-3-3-3-3-3--|
||-----------------------------------|
PM    -   -     - -   -   -     - -

Play that line 4 times.

                           1,2,3                 4
||------------------|-----------------|-----------------------|
||o-----------------|-----------------|-----------------------|
||------------------|-----------------|-----------------------|
||--3---3---3-3-----|-3---3---3-3-----|-3---3---3---33333333--|
||o-1-1-1-1-1-1-1-1-|-1-1-1-1-1-1-1-1-|-1---1---1---11111111--|
||------------------|-----------------|-----------------------|
PM    -   -     - -     -   -     - -   -   -   -   --------

Play that line 4 times.

||-----------------------------------|
||o----------------------------------|
||-----------------------------------|
||-----------------------------------|
||o-3---3---3-3-----5---5---5-5------|
||--1-1-1-1-1-1-1-1-3-3-3-3-3-3-3-3--|
PM    -   -     - -   -   -     - -

||--------------------------------|
||o-------------------------------|
||--------------------------------|
||--------------------------------|
||o-7-----------------------------|
||--5------5-5-5-5-5-5-5-5-5-5-5--|
PM         - - - - - - - - - - -

Play those lines 6 times.



Verse
||-------------------------------------------|
||o------------------------------------------|
||-------------------------------------------|
||-------------------------------------------|
||o-2-----2---2---3-2-----2-------2---2---3--|
||--0-0-0-0-0-0-0-1-0-0-0-0-0-0-0-0-0-0-0-1--|
PM    - -   -   -     - -   - - -   -   -

||-------------------------------|
||o------------------------------|
||-------------------------------|
||-------------------------------|
||o-----2---2---3---3-3-3-3-5-5--|
||--0-0-0-0-0-0-1-0-1-1-1-1-3-3--|
PM  - -   -   -   -

Play those lines 1 time.

||-----------------------------------------------------------------|
||o----------------------------------------------------------------|
||-----------------------------------------------------------------|
||-----------------------------------------------------------------|
||o-2-----2---2---3-2-----2---2---3-2-----2---2---3-2-3-3-3-3-5-5--|
||--0-0-0-0-0-0-0-1-0-0-0-0-0-0-0-1-0-0-0-0-0-0-0-1-0-1-1-1-1-3-3--|
PM    - -   -   -     - -   -   -     - -   -   -

Play that line 4 times.

||--------------------|
||o-------------------|
||--------------------|
||--------------------|
||o-9---12---7--------|
||--7---10---5--------|
PM

Play that line 1 time.



Chorus
||-------------------------------|
||o------------------------------|
||-------------------------------|
||--9\8-----8-------6---6---6/8--|
||o-7\6-----6-------4---4---4/6--|
||------0-0---0-0-0---0---0------|
PM      - -   - - -   -   -

||-------------------------------|
||o------------------------------|
||-------------------------------|
||--9\8-----8--------------------|
||o-7\6-----6-----7\5------------|
||------0-0---0-0-5\3--0-1-3-1-0-|
PM      - -   - -      - - - - -

||-------------------------------|
||o------------------------------|
||-------------------------------|
||--9\8-----8-------6---6---6/8--|
||o-7\6-----6-------4---4---4/6--|
||------0-0---0-0-0---0---0------|
PM      - -   - - -   -   -

||-------------------------------|
||o------------------------------|
||-------------------------------|
||--9\8-----8-------5---5---5-5--|
||o-7\6-----6-------3---3---3-3--|
||------0-0---0-0-0---0---0------|
PM      - -   - - -   -   -

Play those lines 2 times.



Outro
||--------------------------------------------------------|
||o-------------------------------------------------------|
||--------------------------------------------------------|
||--9p8--------------6h8p6h8----14----12------------------|
||o----------------------------------------14-—13-----\2--|
||------000000000000---------------000---00--00--------0--|
PM      ------------               ---   --  --
Добавлено: 23.05.2012
Вам также может быть интересно:
Другие материалы по этой песне:
  • Аккорды и текст

Страница создана 23.05.2012
http://primanota.ru/the-absence/world-divides-chords.htm
Привет, Гость.
Предлагаем пройти революционный курс по гитаре.
Подарок от PrimaNota.Ru, забирай!