PrimaNota.ru - самый крупный в мире бесплатный архив песенных текстов, аккордов, табулатур и нот


The 77s - Do It For Love - таба, видео

Регистрация Запомнить меня
Войти через:  Facebook Google Twitter Vk Yandex Mail.ru

The 77s - Do It For Love - таба, видео

Печатать
Просмотров: 178
		   DO IT FOR LOVE 
by the Seventy Sevens on their self titled CD 
 
CHORDS: 
 
          A                     A(C#)                  D(F#)                  E 
|-------------------|  |--------------------|    |--------2----------|  |-------------------| 
|------2------------|  |------2-------------|    |-----------3-------|  |-------------------| 
|------2------------|  |------2-------------|    |--------2----------|  |---------1---------| 
|------2------------|  |------2-------------|    |---x---------------|  |-------------2-----| 
|-------------------|  |---------------4----|    |---x---------------|  |-------------2-----| 
|-------------------|  |--x-----------------|    |--------2----------|  |-------------------| 
 
SOLO 1 
 
VERSE 1 
 
A                                                        D(F#) 
Take back all those things you said       When you were tired of living 
 
A                                                  D(F#) 
Hold on to the dreams we shared      They were so easy to believe in 
 
A                                               D(F#) 
Turn back from the way you're going            It's a rocky road for sure 
 
A 
Lift up your heart to heaven      Dream this dream with me once more 
 
CHORUS: 
 
A                     A(C#)                D(F#) 
C it for lu - uh - uh - ove              C it for lu - uh - uh - ove 
 
VERSE 2 
 
A                                      D(F#) 
Tell me how to love you        Let me know what I've been missing 
 
A 
Don't walk out of this life again   You've got me  You've got this love 
 
A 
This world in your hand 
 
CHORUS...... 
 
BRIDGE-.******during the D(F#), there is an alternating note on the second fret 
of the top E string and the open top E string-------------->listen to the CD for details 
 
 
E(let ring)............   D(F#)     E(let ring).......              D(F#) 
              And i can see a time                     When we will dare to laugh 
 
E(let ring)...........                                D(F#)                                   A 
              At all these ghost that haunt us     Hey, that day we'll say we did it, did it for love 
 
A(C#)...                D(F#) 
            do it for lu - uh - uh - ove 
 
        A 
do it for love 
 
A(C#)....       D(F#) 
        do it for lu - uh - uh -ove 
 
SOLO 2 
 
SOLOS!!! 
 
These solos are my first attempt at transcribing.  they are the correct notes, but 
there may be an easier place to play them than what i specify.  have fun with it... 
 
SOLO 1: 
E|----------------|----------------------------------------------------| 
B|--2(let ring)---|----------4--6----------7----6----------------------| ***from the end of 
G|----------------|--2 / 7---------4----------------7--------2---------|    (2) return to the 
D|----------------|----------------------------------------------------|    beginning of (2) 
A|----------------|----------------------------------------------------|    and play thru a  
E|----------------|----------------------------------------------------|    second time.
        (1)                                   (2) 
 
SOLO 2: 
E|--------------------------------------------------------------------------------------------| 
B|----9/\/\/\/\/\-----------------------------------------------------------------------------| 
G|----------------7--6--------6--9-----7--6-----------------------------------6----7--6-------| 
D|-----------------------7-9-------------------9(bend)---------7-------7--9------------9------| 
A|----------------------------------------------------------9---------7--9----------9---------| 
E|--------------------------------------------------------------------------------------------| 
                                (1) 
 
E|--12/\/\/\/\/\--------|------------12--------------------|--------12 / 17--16---------------| 
B|---------------15--14-|-----12--14---15--14--12(bend)----|----12---------------17-14(bend)--| 
G|----------------------|-14----------------------------11-|-14---14--------------------------| 
D|----------------------|----------------------------------|----------------------------------| 
A|----------------------|----------------------------------|----------------------------------| 
E|----------------------|----------------------------------|----------------------------------| 
        (2)                     (3)                             (4) 
 
                                                        *****from the end of (4) play 
                                                               (3) once more and end 
 
enjoy - SWILL5786@aol.com
     
Добавлено: 05.06.2013
Другие материалы по этой песне:
  • Аккорды и текст

Страница создана 05.06.2013
http://primanota.ru/the-77s/do-it-for-love-chords.htm
Привет, Гость.
Предлагаем пройти революционный курс по гитаре.
Подарок от PrimaNota.Ru, забирай!