PrimaNota.ru - самый крупный в мире бесплатный архив песенных текстов, аккордов, табулатур и нот


The 5th Dimension - Aquarius-let The Sunshine In The Flesh Failures - таба, бас-таба, драм-таба, видео

Регистрация Запомнить меня
Войти через:  Facebook Google Twitter Vk Yandex Mail.ru

The 5th Dimension - Aquarius-let The Sunshine In The Flesh Failures - таба, бас-таба, драм-таба, видео

Печатать
Просмотров: 118
Уроки эстрадного вокала в Санкт-Петербурге
                         Aquarius/Let The Sunshine In                           


                              The 5th Dimension

Instruments:
- Guitar/Flute
- Piano/Flute
- Trumpet
- Trombone #1 / Efect
- Trombone #2
- Keyboard
- Voice Melody




Guitar/Flute:


          Intro                                                           
     S    E     E  E  E      H         E  Q.        E  E  E  E  H         
E||----|--------------8--|-----------------------|-----------5-----------|
B||----|-----------8-----|--10---------L---------|--------5-----6--------|
G||----|--------7--------|-----------------------|-----5-----------------|
D||----|-----------------|-----------------------|-----------------------|
A||----|-----------------|-----------------------|-----------------------|
E||----|-----------------|-----------------------|-----------------------|


  Riff A                                                              
  H        E   E  E  E     H        E  E  E  E     H        H         
--------------10--6-----|--------------6--------|--------------------|
-----------6---------6--|--5--------5-----8--5--|--4-----------------|
------------------------|-----------------------|--------------------|
------------------------|-----------------------|--------------------|
------------------------|-----------------------|--------------------|
------------------------|-----------------------|--------------------|


                         Verso Riff 1                               
                         Eb7M/C       F           Gm/C              
                         ^            ^           ^                 
  Q    E  E  H           H            H           W                 
----------------------|--3------------1--------|--3----------------|
-------6-----8--------|--3------------1--------|--3----------------|
----------7-----------|--x------------2--------|--3----------------|
----------------------|--1------------3--------|--5----------------|
----------------------|--3------------3--------|--3----------------|
----------------------|------------------------|-------------------|


  Eb7M/C   F           Gm/C                Eb7M/C   F         
  ^        ^           ^                   ^        ^         
  H        H           W                   H        H         
--3--------1--------|--3----------------|--3--------1--------|
--3--------1--------|--3----------------|--3--------1--------|
--x--------2--------|--3----------------|--x--------2--------|
--1--------3--------|--5----------------|--1--------3--------|
--3--------3--------|--3----------------|--3--------3--------|
--------------------|-------------------|--------------------|


  Gm/C                Eb       F           Bb                 
  ^                   ^        ^           ^                  
  W                   H        H           Q    H.            
--3----------------|--3--------1--------|--1-----------------|
--3----------------|--4--------1--------|--3-----------------|
--3----------------|--3--------2--------|--3-----------------|
--5----------------|--5--------3--------|--3-----------------|
--3----------------|--6--------3--------|--1-----------------|
-------------------|-----------1--------|--------------------|


  Coro                                                   
  Ab                                                     
  ^    ^ ^ ^  v  ^   ^ ^  v     ^   ^ ^  v  ^   ^ ^  v   
  E    S S E  E  E.  S E  E     E.  S E  E  E.  S E  E   
-----------------------------|--------------------------|
-------4-4-4--4------4-4--4--|------4-4--4------4-4--4--|
--5----5-5-5--5--5---5-5--5--|--5---5-5--5--5---5-5--5--|
--6----6-6-6--6--6---6-6--6--|--6---6-6--6--6---6-6--6--|
--6--------------6-----------|--6-----------6-----------|
--4--------------4-----------|--4-----------4-----------|


  Cm                         F                        
  ^   ^ ^  v  ^   ^ ^  v     ^   ^ ^  v  ^   ^ ^  v   
  E.  S E  E  E.  S E  E     E.  S E  E  E.  S E  E   
--------------------------|--1---1-1--1--1---1-1--1--|
------4-4--4------4-4--4--|--1---1-1--1--1---1-1--1--|
--5---5-5--5--5---5-5--5--|--2---2-2--2--2---2-2--2--|
--5---5-5--5--5---5-5--5--|--3---3-3--3--3---3-3--3--|
--3-----------3-----------|--3---3-3--3--3---3-3--3--|
--------------------------|--1-----------1-----------|


                             Cm                       
  ^   ^ ^  v  ^   ^ ^  v     ^   ^ ^  v  ^   ^ ^  v   
  E.  S E  E  E.  S E  E     E.  S E  E  E.  S E  E   
--1---1-1--1--1---1-1--1--|--------------------------|
--1---1-1--1--1---1-1--1--|------4-4--4------4-4--4--|
--2---2-2--2--2---2-2--2--|--5---5-5--5--5---5-5--5--|
--3---3-3--3--3---3-3--3--|--5---5-5--5--5---5-5--5--|
--3---3-3--3--3---3-3--3--|--3-----------3-----------|
--1-----------1-----------|--------------------------|


                             Verso Riff 2                      
                             Bb                   Eb           
  ^   ^ ^  v  ^   ^ ^  v     ^            ^ ^  v  ^   ^ ^  v   
  E.  S E  E  E.  S E  E     E.           S E  E  E.  S E  E   
--------------------------|---------------1-1--1------3-3--3--|
------4-4--4------4-4--4--|--3------------3-3--3--4---4-4--4--|
--5---5-5--5--5---5-5--5--|--3------------3-3--3--3---3-3--3--|
--5---5-5--5--5---5-5--5--|--3------------3-3--3--5---5-5--5--|
--3-----------3-----------|--1--------------------6-----------|
--------------------------|-----------------------------------|


  Bb          Eb             Bb          Eb           
  ^   ^ ^  v  ^   ^ ^  v     ^   ^ ^  v  ^   ^ ^  v   
  E.  S E  E  E.  S E  E     E.  S E  E  E.  S E  E   
------1-1--1------3-3--3--|------1-1--1------3-3--3--|
--3---3-3--3--4---4-4--4--|--3---3-3--3--4---4-4--4--|
--3---3-3--3--3---3-3--3--|--3---3-3--3--3---3-3--3--|
--3---3-3--3--5---5-5--5--|--3---3-3--3--5---5-5--5--|
--1-----------6-----------|--1-----------6-----------|
--------------------------|--------------------------|


  Cm    Bb/D   Eb             Eb    G7    Cm                  F    Gm        
  ^   v ^    v ^   v ^  v     ^   v ^   v ^   v ^  v     ^    ^    ^         
  E.  S E.   S E.  S E  E     E.  S E.  S E.  S E  E     Q    Q    H         
---------------------------|--------1---1-------------|---------------------|
--4---4-3----3-4---4-4--4--|--4---4-0---0-----4-4--4--|--4----1----3--------|
--5---5-3----3-3---3-3--3--|--3---3-0---0-5---5-5--5--|--5----2----3--------|
--5---5-3----3-5---5-5--5--|--5---5-0-----5---5-5--5--|--5----3----5--------|
--3-----5------6-----------|--6-----------3-----------|--3----3----5--------|
---------------------------|--------------------------|-------1----3--------|


  Coro                                                 
  F                                                    
  ^    ^ ^  v  ^   ^ ^  v     ^   ^ ^  v  ^   ^ ^  v   
  E.   S E  E  E.  S E  E     E.  S E  E  E.  S E  E   
---------------------------|--------------------------|
--1----1-1--1--1---1-1--1--|--1---1-1--1--1---1-1--1--|
--2----2-2--2--2---2-2--2--|--2---2-2--2--2---2-2--2--|
--3----3-3--3--3---3-3--3--|--3---3-3--3--3---3-3--3--|
--3------------3-----------|--3-----------3-----------|
--1------------1-----------|--1-----------1-----------|


  Riff A                                                 
  Cm                                                     
  ^      ^ ^     ^   ^ ^        ^   ^ ^     ^   ^ ^      
  E.     S S E.  E.  S S E.     E.  S S E.  E.  S S E.   
-----------------------------|--------------------------|
---------4-4---------4-4-----|------4-4---------4-4-----|
--5------5-5-----5---5-5-----|--5---5-5-----5---5-5-----|
--5------5-5-----5---5-5-----|--5---5-5-----5---5-5-----|
--3--------------3-----------|--3-----------3-----------|
-----------------------------|--------------------------|


                                                        Verso Riff 1           
                                                        Eb7M/C       F         
  ^   ^ ^     ^   ^ ^        ^   ^ ^     ^   ^ ^        ^            ^         
  E.  S S E.  E.  S S E.     E.  S S E.  E.  S S E.     H            H         
--------------------------|--------------------------|--3------------1--------|
------4-4---------4-4-----|------4-4---------4-4-----|--3------------1--------|
--5---5-5-----5---5-5-----|--5---5-5-----5---5-5-----|--x------------2--------|
--5---5-5-----5---5-5-----|--5---5-5-----5---5-5-----|--1------------3--------|
--3-----------3-----------|--3-----------3-----------|--3------------3--------|
--------------------------|--------------------------|------------------------|


  Gm/C                Eb7M/C   F           Gm/C              
  ^                   ^        ^           ^                 
  W                   H        H           W                 
--3----------------|--3--------1--------|--3----------------|
--3----------------|--3--------1--------|--3----------------|
--3----------------|--x--------2--------|--3----------------|
--5----------------|--1--------3--------|--5----------------|
--3----------------|--3--------3--------|--3----------------|
-------------------|--------------------|-------------------|


  Eb7M/C   F           Gm/C                Eb       F         
  ^        ^           ^                   ^        ^         
  H        H           W                   H        H         
--3--------1--------|--3----------------|--3--------1--------|
--3--------1--------|--3----------------|--4--------1--------|
--x--------2--------|--3----------------|--3--------2--------|
--1--------3--------|--5----------------|--5--------3--------|
--3--------3--------|--3----------------|--6--------3--------|
--------------------|-------------------|-----------1--------|


                       Coro                                                   
                       Ab                                                     
  ^                    ^    ^ ^ ^  v  ^   ^ ^  v     ^   ^ ^  v  ^   ^ ^  v   
  Q    H.              E    S S E  E  E.  S E  E     E.  S E  E  E.  S E  E   
--1-----------------|-----------------------------|--------------------------|
--3-----------------|-------4-4-4--4------4-4--4--|------4-4--4------4-4--4--|
--3-----------------|--5----5-5-5--5--5---5-5--5--|--5---5-5--5--5---5-5--5--|
--3-----------------|--6----6-6-6--6--6---6-6--6--|--6---6-6--6--6---6-6--6--|
--1-----------------|--6--------------6-----------|--6-----------6-----------|
--------------------|--4--------------4-----------|--4-----------4-----------|


  Cm                         F                        
  ^   ^ ^  v  ^   ^ ^  v     ^   ^ ^  v  ^   ^ ^  v   
  E.  S E  E  E.  S E  E     E.  S E  E  E.  S E  E   
--------------------------|--1---1-1--1--1---1-1--1--|
------4-4--4------4-4--4--|--1---1-1--1--1---1-1--1--|
--5---5-5--5--5---5-5--5--|--2---2-2--2--2---2-2--2--|
--5---5-5--5--5---5-5--5--|--3---3-3--3--3---3-3--3--|
--3-----------3-----------|--3---3-3--3--3---3-3--3--|
--------------------------|--1-----------1-----------|


                             Cm                       
  ^   ^ ^  v  ^   ^ ^  v     ^   ^ ^  v  ^   ^ ^  v   
  E.  S E  E  E.  S E  E     E.  S E  E  E.  S E  E   
--1---1-1--1--1---1-1--1--|--------------------------|
--1---1-1--1--1---1-1--1--|------4-4--4------4-4--4--|
--2---2-2--2--2---2-2--2--|--5---5-5--5--5---5-5--5--|
--3---3-3--3--3---3-3--3--|--5---5-5--5--5---5-5--5--|
--3---3-3--3--3---3-3--3--|--3-----------3-----------|
--1-----------1-----------|--------------------------|


                             F                        
  ^   ^ ^  v  ^   ^ ^  v     ^   ^ ^  v  ^   ^ ^  v   
  E.  S E  E  E.  S E  E     E.  S E  E  E.  S E  E   
--------------------------|--1---1-1--1--1---1-1--1--|
------4-4--4------4-4--4--|--1---1-1--1--1---1-1--1--|
--5---5-5--5--5---5-5--5--|--2---2-2--2--2---2-2--2--|
--5---5-5--5--5---5-5--5--|--3---3-3--3--3---3-3--3--|
--3-----------3-----------|--3---3-3--3--3---3-3--3--|
--------------------------|--1-----------1-----------|


                             Cm                       
  ^   ^ ^  v  ^   ^ ^  v     ^   ^ ^  v  ^   ^ ^  v   
  E.  S E  E  E.  S E  E     E.  S E  E  E.  S E  E   
--1---1-1--1--1---1-1--1--|--------------------------|
--1---1-1--1--1---1-1--1--|------4-4--4------4-4--4--|
--2---2-2--2--2---2-2--2--|--5---5-5--5--5---5-5--5--|
--3---3-3--3--3---3-3--3--|--5---5-5--5--5---5-5--5--|
--3---3-3--3--3---3-3--3--|--3-----------3-----------|
--1-----------1-----------|--------------------------|


                                   Bass Riff A                      
  Cm                               Bm                               
                                   ^           ^  ^ v  v ^  ^  ^ v  
  E.  S S S S S S S S S S S S S    Q           E  S E  S E  E  S S  
--------------------------------|----------------------------------|
--------------------------------|--------------3--3-3--3-3--3--3-3-|
--5-----------------------------|--------------4--4-4--4-4--4--4-4-|
--5---5-5-5-5-5-5-5-5-5-5-5-5-5-|--4-----------4--4-4--4-4--4--4-4-|
--3---3-3-3-3-3-3-3-3-3-3-3-3-3-|--2-------------------------------|
--------------------------------|----------------------------------|


  F#7                                                   
  ^    ^  ^ v  v ^  ^  ^ v    ^    ^  ^ v  v ^  ^  ^ v  
  Q    E  S E  S E  E  S S    Q    E  S E  S E  E  S S  
---------------------------|---------------------------|
-------5--5-5--5-5--5--5-5-|-------5--5-5--5-5--5--5-5-|
-------3--3-3--3-3--3--3-3-|-------3--3-3--3-3--3--3-3-|
-------2--2-2--2-2--2--2-2-|-------2--2-2--2-2--2--2-2-|
--4------------------------|--4------------------------|
--2------------------------|--2------------------------|


  Bm                          G                         
  ^    ^  ^ v  v ^  ^  ^ v    ^    ^  ^ v  v ^  ^  ^ v  
  Q    E  S E  S E  E  S S    Q    E  S E  S E  E  S S  
---------------------------|-------3--3-3--3-3--3--3-3-|
-------3--3-3--3-3--3--3-3-|-------3--3-3--3-3--3--3-3-|
-------4--4-4--4-4--4--4-4-|-------0--0-0--0-0--0--0-0-|
--4----4--4-4--4-4--4--4-4-|-------0--0-0--0-0--0--0-0-|
--2------------------------|--2------------------------|
---------------------------|--3------------------------|


                              Bass Riff B/Coro                      
  D                                                                 
  ^    ^  ^ v  v ^  ^  ^ v    ^                ^  ^ v  v ^  ^  ^ v  
  Q    E  S E  S E  E  S S    Q                E  S E  S E  E  S S  
-------2--2-2--2-2--2--2-2-|---------------------------------------|
-------3--3-3--3-3--3--3-3-|-------------------3--3-3--3-3--3--3-3-|
--2----2--2-2--2-2--2--2-2-|-------------------4--4-4--4-4--4--4-4-|
--0------------------------|--4----------------4--4-4--4-4--4--4-4-|
---------------------------|--2------------------------------------|
---------------------------|---------------------------------------|


  ^    ^  ^ v  v ^  ^  ^ v    ^    ^  ^ v  v ^  ^  ^ v  
  Q    E  S E  S E  E  S S    Q    E  S E  S E  E  S S  
---------------------------|---------------------------|
-------5--5-5--5-5--5--5-5-|-------5--5-5--5-5--5--5-5-|
-------3--3-3--3-3--3--3-3-|-------3--3-3--3-3--3--3-3-|
-------2--2-2--2-2--2--2-2-|-------2--2-2--2-2--2--2-2-|
--4------------------------|--4------------------------|
--2------------------------|--2------------------------|


  ^    ^  ^ v  v ^  ^  ^ v    ^    ^  ^ v  v ^  ^  ^ v  
  Q    E  S E  S E  E  S S    Q    E  S E  S E  E  S S  
---------------------------|-------3--3-3--3-3--3--3-3-|
-------3--3-3--3-3--3--3-3-|-------3--3-3--3-3--3--3-3-|
-------4--4-4--4-4--4--4-4-|-------0--0-0--0-0--0--0-0-|
--4----4--4-4--4-4--4--4-4-|-------0--0-0--0-0--0--0-0-|
--2------------------------|--2------------------------|
---------------------------|--3------------------------|


                              Bass Riff C                      
  ^    ^  ^ v  v ^  ^  ^ v    ^           ^  ^ v  v ^  ^  ^ v  
  Q    E  S E  S E  E  S S    Q           E  S E  S E  E  S S  
-------2--2-2--2-2--2--2-2-|----------------------------------|
-------3--3-3--3-3--3--3-3-|--------------3--3-3--3-3--3--3-3-|
--2----2--2-2--2-2--2--2-2-|--------------4--4-4--4-4--4--4-4-|
--0------------------------|--4-----------4--4-4--4-4--4--4-4-|
---------------------------|--2-------------------------------|
---------------------------|----------------------------------|


  ^    ^  ^ v  v ^  ^  ^ v    ^    ^  ^ v  v ^  ^  ^ v  
  Q    E  S E  S E  E  S S    Q    E  S E  S E  E  S S  
---------------------------|---------------------------|
-------5--5-5--5-5--5--5-5-|-------5--5-5--5-5--5--5-5-|
-------3--3-3--3-3--3--3-3-|-------3--3-3--3-3--3--3-3-|
-------2--2-2--2-2--2--2-2-|-------2--2-2--2-2--2--2-2-|
--4------------------------|--4------------------------|
--2------------------------|--2------------------------|


  ^    ^  ^ v  v ^  ^  ^ v    ^    ^  ^ v  v ^  ^  ^ v  
  Q    E  S E  S E  E  S S    Q    E  S E  S E  E  S S  
---------------------------|-------3--3-3--3-3--3--3-3-|
-------3--3-3--3-3--3--3-3-|-------3--3-3--3-3--3--3-3-|
-------4--4-4--4-4--4--4-4-|-------0--0-0--0-0--0--0-0-|
--4----4--4-4--4-4--4--4-4-|-------0--0-0--0-0--0--0-0-|
--2------------------------|--2------------------------|
---------------------------|--3------------------------|


                              Bass Riff D                      
  ^    ^  ^ v  v ^  ^  ^ v    ^           ^  ^ v  v ^  ^  ^ v  
  Q    E  S E  S E  E  S S    Q           E  S E  S E  E  S S  
-------2--2-2--2-2--2--2-2-|----------------------------------|
-------3--3-3--3-3--3--3-3-|--------------3--3-3--3-3--3--3-3-|
--2----2--2-2--2-2--2--2-2-|--------------4--4-4--4-4--4--4-4-|
--0------------------------|--4-----------4--4-4--4-4--4--4-4-|
---------------------------|--2-------------------------------|
---------------------------|----------------------------------|


  ^    ^  ^ v  v ^  ^  ^ v    ^    ^  ^ v  v ^  ^  ^ v  
  Q    E  S E  S E  E  S S    Q    E  S E  S E  E  S S  
---------------------------|---------------------------|
-------5--5-5--5-5--5--5-5-|-------5--5-5--5-5--5--5-5-|
-------3--3-3--3-3--3--3-3-|-------3--3-3--3-3--3--3-3-|
-------2--2-2--2-2--2--2-2-|-------2--2-2--2-2--2--2-2-|
--4------------------------|--4------------------------|
--2------------------------|--2------------------------|


  ^    ^  ^ v  v ^  ^  ^ v    ^    ^  ^ v  v ^  ^  ^ v  
  Q    E  S E  S E  E  S S    Q    E  S E  S E  E  S S  
---------------------------|-------3--3-3--3-3--3--3-3-|
-------3--3-3--3-3--3--3-3-|-------3--3-3--3-3--3--3-3-|
-------4--4-4--4-4--4--4-4-|-------0--0-0--0-0--0--0-0-|
--4----4--4-4--4-4--4--4-4-|-------0--0-0--0-0--0--0-0-|
--2------------------------|--2------------------------|
---------------------------|--3------------------------|


                              Bass Riff E                      
  ^    ^  ^ v  v ^  ^  ^ v    ^           ^  ^ v  v ^  ^  ^ v  
  Q    E  S E  S E  E  S S    Q           E  S E  S E  E  S S  
-------2--2-2--2-2--2--2-2-|----------------------------------|
-------3--3-3--3-3--3--3-3-|--------------3--3-3--3-3--3--3-3-|
--2----2--2-2--2-2--2--2-2-|--------------4--4-4--4-4--4--4-4-|
--0------------------------|--4-----------4--4-4--4-4--4--4-4-|
---------------------------|--2-------------------------------|
---------------------------|----------------------------------|


  ^    ^  ^ v  v ^  ^  ^ v    ^    ^  ^ v  v ^  ^  ^ v  
  Q    E  S E  S E  E  S S    Q    E  S E  S E  E  S S  
---------------------------|---------------------------|
-------5--5-5--5-5--5--5-5-|-------5--5-5--5-5--5--5-5-|
-------3--3-3--3-3--3--3-3-|-------3--3-3--3-3--3--3-3-|
-------2--2-2--2-2--2--2-2-|-------2--2-2--2-2--2--2-2-|
--4------------------------|--4------------------------|
--2------------------------|--2------------------------|


  ^    ^  ^ v  v ^  ^  ^ v    ^    ^  ^ v  v ^  ^  ^ v  
  Q    E  S E  S E  E  S S    Q    E  S E  S E  E  S S  
---------------------------|-------3--3-3--3-3--3--3-3-|
-------3--3-3--3-3--3--3-3-|-------3--3-3--3-3--3--3-3-|
-------4--4-4--4-4--4--4-4-|-------0--0-0--0-0--0--0-0-|
--4----4--4-4--4-4--4--4-4-|-------0--0-0--0-0--0--0-0-|
--2------------------------|--2------------------------|
---------------------------|--3------------------------|


                              Bass Riff F                      
  ^    ^  ^ v  v ^  ^  ^ v    ^           ^  ^ v  v ^  ^  ^ v  
  Q    E  S E  S E  E  S S    Q           E  S E  S E  E  S S  
-------2--2-2--2-2--2--2-2-|----------------------------------|
-------3--3-3--3-3--3--3-3-|--------------3--3-3--3-3--3--3-3-|
--2----2--2-2--2-2--2--2-2-|--------------4--4-4--4-4--4--4-4-|
--0------------------------|--4-----------4--4-4--4-4--4--4-4-|
---------------------------|--2-------------------------------|
---------------------------|----------------------------------|


  ^    ^  ^ v  v ^  ^  ^ v    ^    ^  ^ v  v ^  ^  ^ v  
  Q    E  S E  S E  E  S S    Q    E  S E  S E  E  S S  
---------------------------|---------------------------|
-------5--5-5--5-5--5--5-5-|-------5--5-5--5-5--5--5-5-|
-------3--3-3--3-3--3--3-3-|-------3--3-3--3-3--3--3-3-|
-------2--2-2--2-2--2--2-2-|-------2--2-2--2-2--2--2-2-|
--4------------------------|--4------------------------|
--2------------------------|--2------------------------|


  ^    ^  ^ v  v ^  ^  ^ v    ^    ^  ^ v  v ^  ^  ^ v  
  Q    E  S E  S E  E  S S    Q    E  S E  S E  E  S S  
---------------------------|-------3--3-3--3-3--3--3-3-|
-------3--3-3--3-3--3--3-3-|-------3--3-3--3-3--3--3-3-|
-------4--4-4--4-4--4--4-4-|-------0--0-0--0-0--0--0-0-|
--4----4--4-4--4-4--4--4-4-|-------0--0-0--0-0--0--0-0-|
--2------------------------|--2------------------------|
---------------------------|--3------------------------|


                              Bass Riff G                      
  ^    ^  ^ v  v ^  ^  ^ v    ^           ^  ^ v  v ^  ^  ^ v  
  Q    E  S E  S E  E  S S    Q           E  S E  S E  E  S S  
-------2--2-2--2-2--2--2-2-|----------------------------------|
-------3--3-3--3-3--3--3-3-|--------------3--3-3--3-3--3--3-3-|
--2----2--2-2--2-2--2--2-2-|--------------4--4-4--4-4--4--4-4-|
--0------------------------|--4-----------4--4-4--4-4--4--4-4-|
---------------------------|--2-------------------------------|
---------------------------|----------------------------------|


  ^    ^  ^ v  v ^  ^  ^ v    ^    ^  ^ v  v ^  ^  ^ v  
  Q    E  S E  S E  E  S S    Q    E  S E  S E  E  S S  
---------------------------|---------------------------|
-------5--5-5--5-5--5--5-5-|-------5--5-5--5-5--5--5-5-|
-------3--3-3--3-3--3--3-3-|-------3--3-3--3-3--3--3-3-|
-------2--2-2--2-2--2--2-2-|-------2--2-2--2-2--2--2-2-|
--4------------------------|--4------------------------|
--2------------------------|--2------------------------|


  ^    ^  ^ v  v ^  ^  ^ v    ^    ^  ^ v  v ^  ^  ^ v  
  Q    E  S E  S E  E  S S    Q    E  S E  S E  E  S S  
---------------------------|-------3--3-3--3-3--3--3-3-|
-------3--3-3--3-3--3--3-3-|-------3--3-3--3-3--3--3-3-|
-------4--4-4--4-4--4--4-4-|-------0--0-0--0-0--0--0-0-|
--4----4--4-4--4-4--4--4-4-|-------0--0-0--0-0--0--0-0-|
--2------------------------|--2------------------------|
---------------------------|--3------------------------|


                              Bass Riff H                      
  ^    ^  ^ v  v ^  ^  ^ v    ^           ^  ^ v  v ^  ^  ^ v  
  Q    E  S E  S E  E  S S    Q           E  S E  S E  E  S S  
-------2--2-2--2-2--2--2-2-|----------------------------------|
-------3--3-3--3-3--3--3-3-|--------------3--3-3--3-3--3--3-3-|
--2----2--2-2--2-2--2--2-2-|--------------4--4-4--4-4--4--4-4-|
--0------------------------|--4-----------4--4-4--4-4--4--4-4-|
---------------------------|--2-------------------------------|
---------------------------|----------------------------------|


  ^    ^  ^ v  v ^  ^  ^ v    ^    ^  ^ v  v ^  ^  ^ v  
  Q    E  S E  S E  E  S S    Q    E  S E  S E  E  S S  
---------------------------|---------------------------|
-------5--5-5--5-5--5--5-5-|-------5--5-5--5-5--5--5-5-|
-------3--3-3--3-3--3--3-3-|-------3--3-3--3-3--3--3-3-|
-------2--2-2--2-2--2--2-2-|-------2--2-2--2-2--2--2-2-|
--4------------------------|--4------------------------|
--2------------------------|--2------------------------|


  ^    ^  ^ v  v ^  ^  ^ v    ^    ^  ^ v  v ^  ^  ^ v  
  Q    E  S E  S E  E  S S    Q    E  S E  S E  E  S S  
---------------------------|-------3--3-3--3-3--3--3-3-|
-------3--3-3--3-3--3--3-3-|-------3--3-3--3-3--3--3-3-|
-------4--4-4--4-4--4--4-4-|-------0--0-0--0-0--0--0-0-|
--4----4--4-4--4-4--4--4-4-|-------0--0-0--0-0--0--0-0-|
--2------------------------|--2------------------------|
---------------------------|--3------------------------|


                              Bass Riff I                      
  ^    ^  ^ v  v ^  ^  ^ v    ^           ^  ^ v  v ^  ^  ^ v  
  Q    E  S E  S E  E  S S    Q           E  S E  S E  E  S S  
-------2--2-2--2-2--2--2-2-|----------------------------------|
-------3--3-3--3-3--3--3-3-|--------------3--3-3--3-3--3--3-3-|
--2----2--2-2--2-2--2--2-2-|--------------4--4-4--4-4--4--4-4-|
--0------------------------|--4-----------4--4-4--4-4--4--4-4-|
---------------------------|--2-------------------------------|
---------------------------|----------------------------------|


  ^    ^  ^ v  v ^  ^  ^ v    ^    ^  ^ v  v ^  ^  ^ v  
  Q    E  S E  S E  E  S S    Q    E  S E  S E  E  S S  
---------------------------|---------------------------|
-------5--5-5--5-5--5--5-5-|-------5--5-5--5-5--5--5-5-|
-------3--3-3--3-3--3--3-3-|-------3--3-3--3-3--3--3-3-|
-------2--2-2--2-2--2--2-2-|-------2--2-2--2-2--2--2-2-|
--4------------------------|--4------------------------|
--2------------------------|--2------------------------|


  ^    ^  ^ v  v ^  ^  ^ v    ^    ^  ^ v  v ^  ^  ^ v  
  Q    E  S E  S E  E  S S    Q    E  S E  S E  E  S S  
---------------------------|-------3--3-3--3-3--3--3-3-|
-------3--3-3--3-3--3--3-3-|-------3--3-3--3-3--3--3-3-|
-------4--4-4--4-4--4--4-4-|-------0--0-0--0-0--0--0-0-|
--4----4--4-4--4-4--4--4-4-|-------0--0-0--0-0--0--0-0-|
--2------------------------|--2------------------------|
---------------------------|--3------------------------|


                              Bass Riff J                      
  ^    ^  ^ v  v ^  ^  ^ v    ^           ^  ^ v  v ^  ^  ^ v  
  Q    E  S E  S E  E  S S    Q           E  S E  S E  E  S S  
-------2--2-2--2-2--2--2-2-|----------------------------------|
-------3--3-3--3-3--3--3-3-|--------------3--3-3--3-3--3--3-3-|
--2----2--2-2--2-2--2--2-2-|--------------4--4-4--4-4--4--4-4-|
--0------------------------|--4-----------4--4-4--4-4--4--4-4-|
---------------------------|--2-------------------------------|
---------------------------|----------------------------------|


  ^    ^  ^ v  v ^  ^  ^ v    ^    ^  ^ v  v ^  ^  ^ v  
  Q    E  S E  S E  E  S S    Q    E  S E  S E  E  S S  
---------------------------|---------------------------|
-------5--5-5--5-5--5--5-5-|-------5--5-5--5-5--5--5-5-|
-------3--3-3--3-3--3--3-3-|-------3--3-3--3-3--3--3-3-|
-------2--2-2--2-2--2--2-2-|-------2--2-2--2-2--2--2-2-|
--4------------------------|--4------------------------|
--2------------------------|--2------------------------|


  ^    ^  ^ v  v ^  ^  ^ v    ^    ^  ^ v  v ^  ^  ^ v  
  Q    E  S E  S E  E  S S    Q    E  S E  S E  E  S S  
---------------------------|-------3--3-3--3-3--3--3-3-|
-------3--3-3--3-3--3--3-3-|-------3--3-3--3-3--3--3-3-|
-------4--4-4--4-4--4--4-4-|-------0--0-0--0-0--0--0-0-|
--4----4--4-4--4-4--4--4-4-|-------0--0-0--0-0--0--0-0-|
--2------------------------|--2------------------------|
---------------------------|--3------------------------|


                              Bass Riff K                      
  ^    ^  ^ v  v ^  ^  ^ v    ^           ^  ^ v  v ^  ^  ^ v  
  Q    E  S E  S E  E  S S    Q           E  S E  S E  E  S S  
-------2--2-2--2-2--2--2-2-|----------------------------------|
-------3--3-3--3-3--3--3-3-|--------------3--3-3--3-3--3--3-3-|
--2----2--2-2--2-2--2--2-2-|--------------4--4-4--4-4--4--4-4-|
--0------------------------|--4-----------4--4-4--4-4--4--4-4-|
---------------------------|--2-------------------------------|
---------------------------|----------------------------------|


  ^    ^  ^ v  v ^  ^  ^ v    ^    ^  ^ v  v ^  ^  ^ v  
  Q    E  S E  S E  E  S S    Q    E  S E  S E  E  S S  
---------------------------|---------------------------|
-------5--5-5--5-5--5--5-5-|-------5--5-5--5-5--5--5-5-|
-------3--3-3--3-3--3--3-3-|-------3--3-3--3-3--3--3-3-|
-------2--2-2--2-2--2--2-2-|-------2--2-2--2-2--2--2-2-|
--4------------------------|--4------------------------|
--2------------------------|--2------------------------|


  ^    ^  ^ v  v ^  ^  ^ v    ^    ^  ^ v  v ^  ^  ^ v  
  Q    E  S E  S E  E  S S    Q    E  S E  S E  E  S S  
---------------------------|-------3--3-3--3-3--3--3-3-|
-------3--3-3--3-3--3--3-3-|-------3--3-3--3-3--3--3-3-|
-------4--4-4--4-4--4--4-4-|-------0--0-0--0-0--0--0-0-|
--4----4--4-4--4-4--4--4-4-|-------0--0-0--0-0--0--0-0-|
--2------------------------|--2------------------------|
---------------------------|--3------------------------|


                              Bass Riff L/Outro                      
  ^    ^  ^ v  v ^  ^  ^ v    ^                 ^  ^ v  v ^  ^  ^ v  
  Q    E  S E  S E  E  S S    Q                 E  S E  S E  E  S S  
-------2--2-2--2-2--2--2-2-|----------------------------------------|
-------3--3-3--3-3--3--3-3-|--------------------3--3-3--3-3--3--3-3-|
--2----2--2-2--2-2--2--2-2-|--------------------4--4-4--4-4--4--4-4-|
--0------------------------|--4-----------------4--4-4--4-4--4--4-4-|
---------------------------|--2-------------------------------------|
---------------------------|----------------------------------------|


  ^    ^  ^ v  v ^  ^  ^ v    ^    ^  ^ v  v ^  ^  ^ v  
  Q    E  S E  S E  E  S S    Q    E  S E  S E  E  S S  
---------------------------|---------------------------|
-------5--5-5--5-5--5--5-5-|-------5--5-5--5-5--5--5-5-|
-------3--3-3--3-3--3--3-3-|-------3--3-3--3-3--3--3-3-|
-------2--2-2--2-2--2--2-2-|-------2--2-2--2-2--2--2-2-|
--4------------------------|--4------------------------|
--2------------------------|--2------------------------|


  ^    ^  ^ v  v ^  ^  ^ v    ^    ^  ^ v  v ^  ^  ^ v  
  Q    E  S E  S E  E  S S    Q    E  S E  S E  E  S S  
---------------------------|-------3--3-3--3-3--3--3-3-|
-------3--3-3--3-3--3--3-3-|-------3--3-3--3-3--3--3-3-|
-------4--4-4--4-4--4--4-4-|-------0--0-0--0-0--0--0-0-|
--4----4--4-4--4-4--4--4-4-|-------0--0-0--0-0--0--0-0-|
--2------------------------|--2------------------------|
---------------------------|--3------------------------|


  ^    ^  ^ v  v ^  ^  ^ v    ^    ^  ^ v  v ^  ^  ^ v   
  Q    E  S E  S E  E  S S    Q    E  S E  S E  E  S S   
-------2--2-2--2-2--2--2-2-|---------------------------||
-------3--3-3--3-3--3--3-3-|-------3--3-3--3-3--3--3-3-||
--2----2--2-2--2-2--2--2-2-|-------4--4-4--4-4--4--4-4-||
--0------------------------|--4----4--4-4--4-4--4--4-4-||
---------------------------|--2------------------------||
---------------------------|---------------------------||




Piano/Flute:


          Intro                                                             
     S    H           E   E   E   E   H            E  H         E   E   E   
E||----|-----------|-------------20------------|-----------------------17--|
B||----|-----------|---------20------22--------|---L---------------17------|
G||----|-----------|-----19--------------------|---------------17----------|
D||----|-----------|---------------------------|---------------------------|
A||----|-----------|---------------------------|---------------------------|
E||----|-----------|---------------------------|---------------------------|


   Riff A                                                    
   E      E   E   E   H            E   E   E   E   H         
---------22------27---L--------|---L--22------25---L--------|
--18---------22----------------|----------23----------------|
-------------------------------|----------------------------|
-------------------------------|----------------------------|
-------------------------------|----------------------------|
-------------------------------|----------------------------|


   E   E   E   E   E   E   E   S  S     S  E   H.           S  
---L--22----------------------------|-----22------------------|
----------23--------------25--23-25-|---L---------------------|
--------------24------24------------|---------24--------------|
------------------24----------------|-------------------------|
------------------------------------|-------------------------|
------------------------------------|-------------------------|


  Verso Riff 1                                                     
  Eb7M/C       F            Gm/C                Eb7M/C   F         
  ^            ^            ^                   ^        ^         
  H            H            W                   H        H         
--6------------5--------|--------------------|--6--------5--------|
--4------------6--------|--11----------------|--4--------6--------|
--5------------5--------|--12----------------|--5--------5--------|
------------------------|--10----------------|--------------------|
------------------------|--------------------|--------------------|
------------------------|--------------------|--------------------|


   Gm/C                Eb7M/C   F            Gm/C              
   ^                   ^        ^            ^                 
   W                   H        H            W                 
--------------------|--6--------5--------|--------------------|
--11----------------|--4--------6--------|--11----------------|
--12----------------|--5--------5--------|--12----------------|
--10----------------|--------------------|--10----------------|
--------------------|--------------------|--------------------|
--------------------|--------------------|--------------------|


                                            Coro                             
  Eb       F           Bb                   Ab                               
  ^        ^           ^                                                     
  H        H           Q    H.              E    S S S S S S E  S S S S S S  
--6--------5--------|--6-----------------|--4----4-----4-----4--4-----4-----|
--8--------6--------|--6-----------------|----------------------------------|
--8--------5--------|--3-----------------|--5----5---5-5---5-5--5---5-5---5-|
--------------------|--------------------|----------------------------------|
--------------------|--------------------|----------------------------------|
--------------------|--------------------|--4------4-----4---4----4-----4---|


                                   Cm                             
  E  S S S S S S E  S S S S S S    E  S S S S S S E  S S S S S S  
--4--4-----4-----4--4-----4-----|--3--3-----3-----3--3-----3-----|
--------------------------------|--4--4-----4-----4--4-----4-----|
--5--5---5-5---5-5--5---5-5---5-|---------5-----5--------5-----5-|
--------------------------------|--------------------------------|
--------------------------------|--3----3-----3---3----3-----3---|
--4----4-----4---4----4-----4---|--------------------------------|


  F                                                               
  E  S S S S S S E  S S S S S S    E  S S S S S S E  S S S S S S  
--1--1-----1-----1--1-----1-----|--1--1-----1-----1--1-----1-----|
--------------------------------|--------------------------------|
--2--2---2-2---2-2--2---2-2---2-|--2--2---2-2---2-2--2---2-2---2-|
--------------------------------|--------------------------------|
--------------------------------|--------------------------------|
--1----1-----1---1----1-----1---|--1----1-----1---1----1-----1---|


  Cm                                                              
  E  S S S S S S E  S S S S S S    E  S S S S S S E  S S S S S S  
--3--3-----3-----3--3-----3-----|--3--3-----3-----3--3-----3-----|
--4--4-----4-----4--4-----4-----|--4--4-----4-----4--4-----4-----|
---------5-----5--------5-----5-|---------5-----5--------5-----5-|
--------------------------------|--------------------------------|
--3----3-----3---3----3-----3---|--3----3-----3---3----3-----3---|
--------------------------------|--------------------------------|


  Verso Riff 2                                                              
  Bb                       Eb                Bb             Eb              
  E            S S S S S S E  S S S S S S    E  S S S S S S E  S S S S S S  
--1------------1-----1-----3--3-----3-----|--1--1-----1-----3--3-----3-----|
--3------------3-----3-----4--4-----4-----|--3--3-----3-----4--4-----4-----|
-------------------3-----3--------3-----3-|---------3-----3--------3-----3-|
------------------------------------------|--------------------------------|
--1--------------1-----1---6----6-----6---|--1----1-----1---6----6-----6---|
------------------------------------------|--------------------------------|


  Bb             Eb                Cm     Bb/D     Eb              
  E  S S S S S S E  S S S S S S    E  S S E    S S E  S S S S S S  
--1--1-----1-----3--3-----3-----|--3--3------------3--3-----3-----|
--3--3-----3-----4--4-----4-----|--4--4---3----3---4--4-----4-----|
---------3-----3--------3-----3-|---------3----3----------3-----3-|
--------------------------------|---------------------------------|
--1----1-----1---6----6-----6---|--3----3-5------5-6----6-----6---|
--------------------------------|---------------------------------|


         G7     Cm                       F      Gm              
  E  S S E  S S E  S S S S S S    E  S S E  S S E  S S S S S S  
--3--3---1--1---3--3-----3-----|--3--3-------------------------|
--4--4---0--0---4--4-----4-----|--4--4---1--1---3--3-----3-----|
-----------------------5-----5-|---------2--2---3--3-----3-----|
---------0----0----------------|-----------------------5-----5-|
--6----6--------3----3-----3---|--3----3-----------------------|
-------------------------------|---------1----1-3----3-----3---|


  Coro                                                              
  F                                                                 
  E    S S S S S S E  S S S S S S    E  S S S S S S E  S S S S S S  
----------------------------------|--------------------------------|
--1----1-----1-----1--1-----1-----|--1--1-----1-----1--1-----1-----|
--2----2-----2-----2--2-----2-----|--2--2-----2-----2--2-----2-----|
-----------3-----3--------3-----3-|---------3-----3--------3-----3-|
----------------------------------|--------------------------------|
--1------1-----1---1----1-----1---|--1----1-----1---1----1-----1---|


  Riff A                                                              
  Cm                                                                  
  E      S S S S S S E  S S S S S S    E  S S S S S S E  S S S S S S  
--3------3-----3-----3--3-----3-----|--3--3-----3-----3--3-----3-----|
--4------4-----4-----4--4-----4-----|--4--4-----4-----4--4-----4-----|
-------------5-----5--------5-----5-|---------5-----5--------5-----5-|
------------------------------------|--------------------------------|
--3--------3-----3---3----3-----3---|--3----3-----3---3----3-----3---|
------------------------------------|--------------------------------|


  E  S S S S S S E  S S S S S S    E  S S S S S S E  S S S S S S  
--3--3-----3-----3--3-----3-----|--3--3-----3-----3--3-----3-----|
--4--4-----4-----4--4-----4-----|--4--4-----4-----4--4-----4-----|
---------5--------------5-------|---------5--------------5-------|
--------------------------------|--------------------------------|
--3----3-----3---3----3-----3---|--3----3-----3---3----3-----3---|
--------------------------------|--------------------------------|


  Verso Riff 1                                                     
  Eb7M/C       F            Gm/C                Eb7M/C   F         
  ^            ^            ^                   ^        ^         
  H            H            W                   H        H         
--6------------5--------|--------------------|--6--------5--------|
--4------------6--------|--11----------------|--4--------6--------|
--5------------5--------|--12----------------|--5--------5--------|
------------------------|--10----------------|--------------------|
------------------------|--------------------|--------------------|
------------------------|--------------------|--------------------|


   Gm/C                Eb7M/C   F            Gm/C              
   ^                   ^        ^            ^                 
   W                   H        H            W                 
--------------------|--6--------5--------|--------------------|
--11----------------|--4--------6--------|--11----------------|
--12----------------|--5--------5--------|--12----------------|
--10----------------|--------------------|--10----------------|
--------------------|--------------------|--------------------|
--------------------|--------------------|--------------------|


                                            Coro                             
  Eb       F           Bb                   Ab                               
  ^        ^           ^                                                     
  H        H           Q    H.              E    S S S S S S E  S S S S S S  
--6--------5--------|--6-----------------|--4----4-----4-----4--4-----4-----|
--8--------6--------|--6-----------------|----------------------------------|
--8--------5--------|--3-----------------|--5----5---5-5---5-5--5---5-5---5-|
--------------------|--------------------|----------------------------------|
--------------------|--------------------|----------------------------------|
--------------------|--------------------|--4------4-----4---4----4-----4---|


                                   Cm                             
  E  S S S S S S E  S S S S S S    E  S S S S S S E  S S S S S S  
--4--4-----4-----4--4-----4-----|--3--3-----3-----3--3-----3-----|
--------------------------------|--4--4-----4-----4--4-----4-----|
--5--5---5-5---5-5--5---5-5---5-|---------5-----5--------5-----5-|
--------------------------------|--------------------------------|
--------------------------------|--3----3-----3---3----3-----3---|
--4----4-----4---4----4-----4---|--------------------------------|


  F                                                               
  E  S S S S S S E  S S S S S S    E  S S S S S S E  S S S S S S  
--1--1-----1-----1--1-----1-----|--1--1-----1-----1--1-----1-----|
--------------------------------|--------------------------------|
--2--2---2-2---2-2--2---2-2---2-|--2--2---2-2---2-2--2---2-2---2-|
--------------------------------|--------------------------------|
--------------------------------|--------------------------------|
--1----1-----1---1----1-----1---|--1----1-----1---1----1-----1---|


  Cm                                                              
  E  S S S S S S E  S S S S S S    E  S S S S S S E  S S S S S S  
--3--3-----3-----3--3-----3-----|--3--3-----3-----3--3-----3-----|
--4--4-----4-----4--4-----4-----|--4--4-----4-----4--4-----4-----|
---------5-----5--------5-----5-|---------5-----5--------5-----5-|
--------------------------------|--------------------------------|
--3----3-----3---3----3-----3---|--3----3-----3---3----3-----3---|
--------------------------------|--------------------------------|


  F                                                               
  E  S S S S S S E  S S S S S S    E  S S S S S S E  S S S S S S  
--1--1-----1-----1--1-----1-----|--1--1-----1-----1--1-----1-----|
--------------------------------|--------------------------------|
--2--2---2-2---2-2--2---2-2---2-|--2--2---2-2---2-2--2---2-2---2-|
--------------------------------|--------------------------------|
--------------------------------|--------------------------------|
--1----1-----1---1----1-----1---|--1----1-----1---1----1-----1---|


  Cm                                                               
  E  S S S S S S E  S S S S S S    E  S S S S S S S S S S S S S S  
--3--3-----3-----3--3-----3-----|---------------------------------|
--4--4-----4-----4--4-----4-----|---------------------------------|
---------5-----5--------5-----5-|--5------------------------------|
--------------------------------|--5--5-5-5-5-5-5-5-5-5-5-5-5-5-5-|
--3----3-----3---3----3-----3---|--3--3-3-3-3-3-3-3-3-3-3-3-3-3-3-|
--------------------------------|---------------------------------|


  Bass Riff A                                             
  Bm                              F#7                     
  Q           Q    E  E  E  E     Q    E.  S E  E  E  E   
--2-----------2----2-----2-----|-------------------------|
--3-----------3----3--2--3--2--|--L-------------5-----5--|
--4-----------4----4--4--4--4--|--L-------------3-----3--|
-------------------------------|-------2---2-2-----2-----|
----------------------2--------|-------4---4-4-----4-----|
----------------------------2--|--L----------------------|


                               Bm                        
  Q    Q    E   E   E   E      E   E   Q    E  E  E  E   
---------------------------|----------------------------|
-------5----7--11--14--15--|---L--14--12----3-----3-----|
--3----3----3-----------7--|---L---4---4----4--4--4--4--|
--2----2----4---8--11--12--|---L--11---9-------4-----4--|
---------------------------|----------------------------|
--2------------------------|----------------------------|


  G                                  Bm                                
  S S S S S S S S S S S S S S S S    S  S S S S S S S S S S S S S S S  
----------------------------------|-----------------------------------|
------3-----3-----3-----3-----3---|-------3-----3-----3-----3-----3---|
----4-----4-----4-----4-----4-----|-----4-----4-----4-----4-----4-----|
--5-----5-----5-----5-----5-----5-|--4------4-----4-----4-----4-----4-|
----------------------------------|-----------------------------------|
----------------------------------|-----------------------------------|


  Bass Riff B/Coro                                            
  Bm                                   F#7                    
  Q                E.  E.  E  E  E     Q    E.  E.  E  E  E   
--2--------------------2------2-----|------------------------|
--3----------------3---3---3--3--3--|--5--------5------5-----|
--4----------------4---4---4--4--4--|--3----3---3---3--3--3--|
------------------------------------|--4----4---4---4--4--4--|
-------------------2-------2-----2--|------------------------|
------------------------------------|-------2-------2-----2--|


                           Bm                       G                      
  Q    E.  E.  E  E  E     Q    E.  E.  E  E  E     Q    E.  E.  E  E  E   
------------------------|--2--------2------2-----|------------------------|
--5--------5------5-----|--3----3---3---3--3--3--|--3--------3------3-----|
--3----3---3---3--3--3--|--4----4---4---4--4--4--|--4----4---4---4--4--4--|
--4----4---4---4--4--4--|------------------------|--5----5---5---5--5--5--|
------------------------|-------2-------2-----2--|------------------------|
-------2-------2-----2--|------------------------|-------3-------3-----3--|


                           Bass Riff C                   
  D                        Bm                            
  Q    E.  E.  E  E  E     Q           E.  E.  E  E  E   
--2--------2------2-----|--2---------------2------2-----|
--3----3---3---3--3--3--|--3-----------3---3---3--3--3--|
--2----2---2---2--2--2--|--4-----------4---4---4--4--4--|
-------0-------0-----0--|-------------------------------|
------------------------|--------------2-------2-----2--|
------------------------|-------------------------------|


  F#7                                               Bm                     
  Q    E.  E.  E  E  E     Q    E.  E.  E  E  E     Q    E.  E.  E  E  E   
------------------------|------------------------|--2--------2------2-----|
--5--------5------5-----|--5--------5------5-----|--3----3---3---3--3--3--|
--3----3---3---3--3--3--|--3----3---3---3--3--3--|--4----4---4---4--4--4--|
--4----4---4---4--4--4--|--4----4---4---4--4--4--|------------------------|
------------------------|------------------------|-------2-------2-----2--|
-------2-------2-----2--|-------2-------2-----2--|------------------------|


  G                                  Bm                                
  S S S S S S S S S S S S S S S S    S  S S S S S S S S S S S S S S S  
----------------------------------|-----------------------------------|
------3-----3-----3-----3-----3---|-------3-----3-----3-----3-----3---|
----4-----4-----4-----4-----4-----|-----4-----4-----4-----4-----4-----|
--5-----5-----5-----5-----5-----5-|--4------4-----4-----4-----4-----4-|
----------------------------------|-----------------------------------|
----------------------------------|-----------------------------------|


  Bass Riff D                                            
  Bm                              F#7                    
  Q           E.  E.  E  E  E     Q    E.  E.  E  E  E   
--2---------------2------2-----|------------------------|
--3-----------3---3---3--3--3--|--5--------5------5-----|
--4-----------4---4---4--4--4--|--3----3---3---3--3--3--|
-------------------------------|--4----4---4---4--4--4--|
--------------2-------2-----2--|------------------------|
-------------------------------|-------2-------2-----2--|


                           Bm                       G                      
  Q    E.  E.  E  E  E     Q    E.  E.  E  E  E     Q    E.  E.  E  E  E   
------------------------|--2--------2------2-----|------------------------|
--5--------5------5-----|--3----3---3---3--3--3--|--3--------3------3-----|
--3----3---3---3--3--3--|--4----4---4---4--4--4--|--4----4---4---4--4--4--|
--4----4---4---4--4--4--|------------------------|--5----5---5---5--5--5--|
------------------------|-------2-------2-----2--|------------------------|
-------2-------2-----2--|------------------------|-------3-------3-----3--|


                           Bass Riff E                   
  D                        Bm                            
  Q    E.  E.  E  E  E     Q           E.  E.  E  E  E   
--2--------2------2-----|--2---------------2------2-----|
--3----3---3---3--3--3--|--3-----------3---3---3--3--3--|
--2----2---2---2--2--2--|--4-----------4---4---4--4--4--|
-------0-------0-----0--|-------------------------------|
------------------------|--------------2-------2-----2--|
------------------------|-------------------------------|


  F#7                                               Bm                     
  Q    E.  E.  E  E  E     Q    E.  E.  E  E  E     Q    E.  E.  E  E  E   
------------------------|------------------------|--2--------2------2-----|
--5--------5------5-----|--5--------5------5-----|--3----3---3---3--3--3--|
--3----3---3---3--3--3--|--3----3---3---3--3--3--|--4----4---4---4--4--4--|
--4----4---4---4--4--4--|--4----4---4---4--4--4--|------------------------|
------------------------|------------------------|-------2-------2-----2--|
-------2-------2-----2--|-------2-------2-----2--|------------------------|


  G                        D                      
  Q    E.  E.  E  E  E     Q    E.  E.  E  E  E   
------------------------|--2--------2------2-----|
--3--------3------3-----|--3----3---3---3--3--3--|
--4----4---4---4--4--4--|--2----2---2---2--2--2--|
--5----5---5---5--5--5--|-------0-------0-----0--|
------------------------|------------------------|
-------3-------3-----3--|------------------------|


  Bass Riff F                                            
  Bm                              F#7                    
  Q           E.  E.  E  E  E     Q    E.  E.  E  E  E   
--2---------------2------2-----|------------------------|
--3-----------3---3---3--3--3--|--5--------5------5-----|
--4-----------4---4---4--4--4--|--3----3---3---3--3--3--|
-------------------------------|--4----4---4---4--4--4--|
--------------2-------2-----2--|------------------------|
-------------------------------|-------2-------2-----2--|


                           Bm                     
  Q    E.  E.  E  E  E     Q    E.  E.  E  E  E   
------------------------|--2--------2------2-----|
--5--------5------5-----|--3----3---3---3--3--3--|
--3----3---3---3--3--3--|--4----4---4---4--4--4--|
--4----4---4---4--4--4--|------------------------|
------------------------|-------2-------2-----2--|
-------2-------2-----2--|------------------------|


  G                                  Bm                                
  S S S S S S S S S S S S S S S S    S  S S S S S S S S S S S S S S S  
----------------------------------|-----------------------------------|
------3-----3-----3-----3-----3---|-------3-----3-----3-----3-----3---|
----4-----4-----4-----4-----4-----|-----4-----4-----4-----4-----4-----|
--5-----5-----5-----5-----5-----5-|--4------4-----4-----4-----4-----4-|
----------------------------------|-----------------------------------|
----------------------------------|-----------------------------------|


  Bass Riff G                                            
  Bm                              F#7                    
  Q           E.  E.  E  E  E     Q    E.  E.  E  E  E   
--2---------------2------2-----|------------------------|
--3-----------3---3---3--3--3--|--5--------5------5-----|
--4-----------4---4---4--4--4--|--3----3---3---3--3--3--|
-------------------------------|--4----4---4---4--4--4--|
--------------2-------2-----2--|------------------------|
-------------------------------|-------2-------2-----2--|


                           Bm                       G                      
  Q    E.  E.  E  E  E     Q    E.  E.  E  E  E     Q    E.  E.  E  E  E   
------------------------|--2--------2------2-----|------------------------|
--5--------5------5-----|--3----3---3---3--3--3--|--3--------3------3-----|
--3----3---3---3--3--3--|--4----4---4---4--4--4--|--4----4---4---4--4--4--|
--4----4---4---4--4--4--|------------------------|--5----5---5---5--5--5--|
------------------------|-------2-------2-----2--|------------------------|
-------2-------2-----2--|------------------------|-------3-------3-----3--|


                           Bass Riff H                   
  D                        Bm                            
  Q    E.  E.  E  E  E     Q           E.  E.  E  E  E   
--2--------2------2-----|--2---------------2------2-----|
--3----3---3---3--3--3--|--3-----------3---3---3--3--3--|
--2----2---2---2--2--2--|--4-----------4---4---4--4--4--|
-------0-------0-----0--|-------------------------------|
------------------------|--------------2-------2-----2--|
------------------------|-------------------------------|


  F#7                                               Bm                     
  Q    E.  E.  E  E  E     Q    E.  E.  E  E  E     Q    E.  E.  E  E  E   
------------------------|------------------------|--2--------2------2-----|
--5--------5------5-----|--5--------5------5-----|--3----3---3---3--3--3--|
--3----3---3---3--3--3--|--3----3---3---3--3--3--|--4----4---4---4--4--4--|
--4----4---4---4--4--4--|--4----4---4---4--4--4--|------------------------|
------------------------|------------------------|-------2-------2-----2--|
-------2-------2-----2--|-------2-------2-----2--|------------------------|


  G                                  Bm                                
  S S S S S S S S S S S S S S S S    S  S S S S S S S S S S S S S S S  
----------------------------------|-----------------------------------|
------3-----3-----3-----3-----3---|-------3-----3-----3-----3-----3---|
----4-----4-----4-----4-----4-----|-----4-----4-----4-----4-----4-----|
--5-----5-----5-----5-----5-----5-|--4------4-----4-----4-----4-----4-|
----------------------------------|-----------------------------------|
----------------------------------|-----------------------------------|


  Bass Riff I                                            
  Bm                              F#7                    
  Q           E.  E.  E  E  E     Q    E.  E.  E  E  E   
--2---------------2------2-----|------------------------|
--3-----------3---3---3--3--3--|--5--------5------5-----|
--4-----------4---4---4--4--4--|--3----3---3---3--3--3--|
-------------------------------|--4----4---4---4--4--4--|
--------------2-------2-----2--|------------------------|
-------------------------------|-------2-------2-----2--|


                           Bm                       G                      
  Q    E.  E.  E  E  E     Q    E.  E.  E  E  E     Q    E.  E.  E  E  E   
------------------------|--2--------2------2-----|------------------------|
--5--------5------5-----|--3----3---3---3--3--3--|--3--------3------3-----|
--3----3---3---3--3--3--|--4----4---4---4--4--4--|--4----4---4---4--4--4--|
--4----4---4---4--4--4--|------------------------|--5----5---5---5--5--5--|
------------------------|-------2-------2-----2--|------------------------|
-------2-------2-----2--|------------------------|-------3-------3-----3--|


                           Bass Riff J                   
  D                        Bm                            
  Q    E.  E.  E  E  E     Q           E.  E.  E  E  E   
--2--------2------2-----|--2---------------2------2-----|
--3----3---3---3--3--3--|--3-----------3---3---3--3--3--|
--2----2---2---2--2--2--|--4-----------4---4---4--4--4--|
-------0-------0-----0--|-------------------------------|
------------------------|--------------2-------2-----2--|
------------------------|-------------------------------|


  F#7                                               Bm                     
  Q    E.  E.  E  E  E     Q    E.  E.  E  E  E     Q    E.  E.  E  E  E   
------------------------|------------------------|--2--------2------2-----|
--5--------5------5-----|--5--------5------5-----|--3----3---3---3--3--3--|
--3----3---3---3--3--3--|--3----3---3---3--3--3--|--4----4---4---4--4--4--|
--4----4---4---4--4--4--|--4----4---4---4--4--4--|------------------------|
------------------------|------------------------|-------2-------2-----2--|
-------2-------2-----2--|-------2-------2-----2--|------------------------|


  G                                  Bm                                
  S S S S S S S S S S S S S S S S    S  S S S S S S S S S S S S S S S  
----------------------------------|-----------------------------------|
------3-----3-----3-----3-----3---|-------3-----3-----3-----3-----3---|
----4-----4-----4-----4-----4-----|-----4-----4-----4-----4-----4-----|
--5-----5-----5-----5-----5-----5-|--4------4-----4-----4-----4-----4-|
----------------------------------|-----------------------------------|
----------------------------------|-----------------------------------|


  Bass Riff K                                            
  Bm                              F#7                    
  Q           E.  E.  E  E  E     Q    E.  E.  E  E  E   
--2---------------2------2-----|------------------------|
--3-----------3---3---3--3--3--|--5--------5------5-----|
--4-----------4---4---4--4--4--|--3----3---3---3--3--3--|
-------------------------------|--4----4---4---4--4--4--|
--------------2-------2-----2--|------------------------|
-------------------------------|-------2-------2-----2--|


                           Bm                       G                      
  Q    E.  E.  E  E  E     Q    E.  E.  E  E  E     Q    E.  E.  E  E  E   
------------------------|--2--------2------2-----|------------------------|
--5--------5------5-----|--3----3---3---3--3--3--|--3--------3------3-----|
--3----3---3---3--3--3--|--4----4---4---4--4--4--|--4----4---4---4--4--4--|
--4----4---4---4--4--4--|------------------------|--5----5---5---5--5--5--|
------------------------|-------2-------2-----2--|------------------------|
-------2-------2-----2--|------------------------|-------3-------3-----3--|


                           Bass Riff L/Outro                   
  D                        Bm                                  
  Q    E.  E.  E  E  E     Q                 E.  E.  E  E  E   
--2--------2------2-----|--2---------------------2------2-----|
--3----3---3---3--3--3--|--3-----------------3---3---3--3--3--|
--2----2---2---2--2--2--|--4-----------------4---4---4--4--4--|
-------0-------0-----0--|-------------------------------------|
------------------------|--------------------2-------2-----2--|
------------------------|-------------------------------------|


  F#7                                               Bm                     
  Q    E.  E.  E  E  E     Q    E.  E.  E  E  E     Q    E.  E.  E  E  E   
------------------------|------------------------|--2--------2------2-----|
--5--------5------5-----|--5--------5------5-----|--3----3---3---3--3--3--|
--3----3---3---3--3--3--|--3----3---3---3--3--3--|--4----4---4---4--4--4--|
--4----4---4---4--4--4--|--4----4---4---4--4--4--|------------------------|
------------------------|------------------------|-------2-------2-----2--|
-------2-------2-----2--|-------2-------2-----2--|------------------------|


  G                                  Bm                                
  S S S S S S S S S S S S S S S S    S  S S S S S S S S S S S S S S S  
----------------------------------|-----------------------------------|
------3-----3-----3-----3-----3---|-------3-----3-----3-----3-----3---|
----4-----4-----4-----4-----4-----|-----4-----4-----4-----4-----4-----|
--5-----5-----5-----5-----5-----5-|--4------4-----4-----4-----4-----4-|
----------------------------------|-----------------------------------|
----------------------------------|-----------------------------------|


  Bm                      
  Q    E.  E.  E  E  E    
--2--------2------2-----||
--3----3---3---3--3--3--||
--4----4---4---4--4--4--||
------------------------||
-------2-------2-----2--||
------------------------||




Trumpet:


          Intro                                               Riff A            
     S    H           W                   W                   W                 
E||----|-----------|-------------------|-------------------|-------------------|
B||----|-----------|-------------------|-------------------|-------------------|
G||----|-----------|-------------------|-------------------|-------------------|
D||----|-----------|-------------------|-------------------|-------------------|
A||----|-----------|-------------------|-------------------|-------------------|
E||----|-----------|-------------------|-------------------|-------------------|


                                                              Verso Riff 1      
  W                   W                   W                   W                 
-------------------|-------------------|-------------------|-------------------|
-------------------|-------------------|-------------------|-------------------|
-------------------|-------------------|-------------------|-------------------|
-------------------|-------------------|-------------------|-------------------|
-------------------|-------------------|-------------------|-------------------|
-------------------|-------------------|-------------------|-------------------|


  W                   W                   W                   W                 
-------------------|-------------------|-------------------|-------------------|
-------------------|-------------------|-------------------|-------------------|
-------------------|-------------------|-------------------|-------------------|
-------------------|-------------------|-------------------|-------------------|
-------------------|-------------------|-------------------|-------------------|
-------------------|-------------------|-------------------|-------------------|


                                                              Coro              
  W                   W                   W                   W                 
-------------------|-------------------|-------------------|-------------------|
-------------------|-------------------|-------------------|-------------------|
-------------------|-------------------|-------------------|-------------------|
-------------------|-------------------|-------------------|-------------------|
-------------------|-------------------|-------------------|-------------------|
-------------------|-------------------|-------------------|-------------------|


  W                   E   S  E   E.   S  E   E.  E     H         E.   E.   E   
-------------------|-----20-22--23---11-13--15------|-----------20---23---25--|
-------------------|--------------------------------|-----------18---20---22--|
-------------------|--------------------------------|-------------------------|
-------------------|--------------------------------|-------------------------|
-------------------|--------------------------------|-------------------------|
-------------------|--------------------------------|-------------------------|


   Q.     E  H           H        E   E.   E.      E.   E.   S  E.   Q.      
---L------------------|------------------------|--13---15---18-20----L------|
---L------------------|--------------16--------|----------------------------|
----------------------|-------------------17---|--10---12---15-17----L------|
----------------------|------------------------|----------------------------|
----------------------|------------------------|----------------------------|
----------------------|------------------------|----------------------------|


  Verso Riff 2                                                                  
  W                   W                   W                   W                 
-------------------|-------------------|-------------------|-------------------|
-------------------|-------------------|-------------------|-------------------|
-------------------|-------------------|-------------------|-------------------|
-------------------|-------------------|-------------------|-------------------|
-------------------|-------------------|-------------------|-------------------|
-------------------|-------------------|-------------------|-------------------|


                                           Coro                          
  W                   W                    Q.     S  E   E   S  E  S  S  
-------------------|-------------------|--20--------20--20--18-20----20-|
-------------------|-------------------|------------13--13--11-13----13-|
-------------------|-------------------|--------------------------------|
-------------------|-------------------|--------------------------------|
-------------------|-------------------|--------------------------------|
-------------------|-------------------|--------------------------------|


                                      Riff A                 
  S  E   S  E  S  E   E   S  E  E     H        E   E.   E.   
----20--18-20----20--20--18-20-----|------------------------|
----13--13-13----13--13--13-13-----|--------------16--------|
-----------------------------------|-------------------17---|
-----------------------------------|------------------------|
-----------------------------------|------------------------|
-----------------------------------|------------------------|


   E.   S  H.              W                   W                 
--13---15--L------------|-------------------|-------------------|
------------------------|-------------------|-------------------|
--10---12--L------------|-------------------|-------------------|
------------------------|-------------------|-------------------|
------------------------|-------------------|-------------------|
------------------------|-------------------|-------------------|


  Verso Riff 1                                                                  
  W                   W                   W                   W                 
-------------------|-------------------|-------------------|-------------------|
-------------------|-------------------|-------------------|-------------------|
-------------------|-------------------|-------------------|-------------------|
-------------------|-------------------|-------------------|-------------------|
-------------------|-------------------|-------------------|-------------------|
-------------------|-------------------|-------------------|-------------------|


  W                   W                   W                   W                 
-------------------|-------------------|-------------------|-------------------|
-------------------|-------------------|-------------------|-------------------|
-------------------|-------------------|-------------------|-------------------|
-------------------|-------------------|-------------------|-------------------|
-------------------|-------------------|-------------------|-------------------|
-------------------|-------------------|-------------------|-------------------|


  Coro                                                                   
  W                   W                   E   S  E   E.   S  E   E.  E   
-------------------|-------------------|-----20-22--23---11-13--15------|
-------------------|-------------------|--------------------------------|
-------------------|-------------------|--------------------------------|
-------------------|-------------------|--------------------------------|
-------------------|-------------------|--------------------------------|
-------------------|-------------------|--------------------------------|


  H         E.   E.   E      Q.     S  E   E   S  E  E   
-----------20---23---25--|---L--------20--20--18-20-----|
-----------18---20---22--|---L--------13--13--11-13-----|
-------------------------|------------------------------|
-------------------------|------------------------------|
-------------------------|------------------------------|
-------------------------|------------------------------|


  H        E   E.   E.      E.   S  H.              H         E.   E.   E   
------------------------|--13---15--L------------|-----------20---23---25--|
--------------16--------|------------------------|-----------18---20---22--|
-------------------17---|--10---12--L------------|-------------------------|
------------------------|------------------------|-------------------------|
------------------------|------------------------|-------------------------|
------------------------|------------------------|-------------------------|


   Q.     S  E   E   S  E  E     H        E   E.   E.   
---L--------20--20--18-20-----|------------------------|
---L--------13--13--11-13-----|--------------16--------|
------------------------------|-------------------17---|
------------------------------|------------------------|
------------------------------|------------------------|
------------------------------|------------------------|


                               Bass Riff A                    
   E.   E.   S  E.   Q.        Q            S  E  S H         
--13---15---18-20----L------|--------------26-26-------------|
----------------------------|--------------19-19-------------|
--10---12---15-17----L------|--------------------------------|
----------------------------|--------------------------------|
----------------------------|--------------------------------|
----------------------------|--------------------------------|


  Q     E.   S  E  Q.        Q     S  E  S H           Q     E.   S  E  Q.      
-------24---24-24---------|-------24-24-------------|-------26---26-26---------|
-------17---17-17---------|-------17-17-------------|-------19---19-19---------|
--------------------------|-------------------------|--------------------------|
--------------------------|-------------------------|--------------------------|
--------------------------|-------------------------|--------------------------|
--------------------------|-------------------------|--------------------------|


                                                              Bass Riff B/Coro  
  Q     E   S  E   S  E   Q        S S  Q     Q     Q.        W                 
-------22--19-22--19-22---L----|---L---22----26----29------|-------------------|
-------15--12-15--12-15---L----|---L---15----19----22------|-------------------|
-------------------------------|---------------------------|-------------------|
-------------------------------|---------------------------|-------------------|
-------------------------------|---------------------------|-------------------|
-------------------------------|---------------------------|-------------------|


  W                   W                   W                   W                 
-------------------|-------------------|-------------------|-------------------|
-------------------|-------------------|-------------------|-------------------|
-------------------|-------------------|-------------------|-------------------|
-------------------|-------------------|-------------------|-------------------|
-------------------|-------------------|-------------------|-------------------|
-------------------|-------------------|-------------------|-------------------|


                      Bass Riff C                                               
  W                   W                   W                   W                 
-------------------|-------------------|-------------------|-------------------|
-------------------|-------------------|-------------------|-------------------|
-------------------|-------------------|-------------------|-------------------|
-------------------|-------------------|-------------------|-------------------|
-------------------|-------------------|-------------------|-------------------|
-------------------|-------------------|-------------------|-------------------|


                                                              Bass Riff D       
  W                   W                   W                   W                 
-------------------|-------------------|-------------------|-------------------|
-------------------|-------------------|-------------------|-------------------|
-------------------|-------------------|-------------------|-------------------|
-------------------|-------------------|-------------------|-------------------|
-------------------|-------------------|-------------------|-------------------|
-------------------|-------------------|-------------------|-------------------|


  W                   W                   W                   W                 
-------------------|-------------------|-------------------|-------------------|
-------------------|-------------------|-------------------|-------------------|
-------------------|-------------------|-------------------|-------------------|
-------------------|-------------------|-------------------|-------------------|
-------------------|-------------------|-------------------|-------------------|
-------------------|-------------------|-------------------|-------------------|


                      Bass Riff E                                               
  W                   Q            S  E  S H           Q     E.   S  E  Q.      
-------------------|--------------26-26-------------|-------24---24-24---------|
-------------------|--------------------------------|--------------------------|
-------------------|--------------11-11-------------|--------9----9--9---------|
-------------------|--------------------------------|--------------------------|
-------------------|--------------------------------|--------------------------|
-------------------|--------------------------------|--------------------------|


  Q     S  E  S H           Q     E.   S  E  Q.      
-------24-24-------------|-------26---26-26---------|
-------------------------|--------------------------|
--------9--9-------------|-------11---11-11---------|
-------------------------|--------------------------|
-------------------------|--------------------------|
-------------------------|--------------------------|


  Q     E   S  E   S  E   Q        S S  Q     Q     Q.      
-------22--19-22--19-22---L----|---L---22----26----29------|
-------------------------------|---------------------------|
--------7---4--7---4--7---L----|---L----7----11----14------|
-------------------------------|---------------------------|
-------------------------------|---------------------------|
-------------------------------|---------------------------|


  Bass Riff F                                               
  Q            S  E  S H           Q     E.   S  E  Q.      
--------------26-26-------------|-------24---24-24---------|
--------------------------------|--------------------------|
--------------11-11-------------|--------9----9--9---------|
--------------------------------|--------------------------|
--------------------------------|--------------------------|
--------------------------------|--------------------------|


  Q     S  E  S H           Q     E.   S  E  Q.      
-------24-24-------------|-------26---26-26---------|
-------------------------|--------------------------|
--------9--9-------------|-------11---11-11---------|
-------------------------|--------------------------|
-------------------------|--------------------------|
-------------------------|--------------------------|


  Q     E   S  E   S  E   Q        S S  Q     Q     Q.      
-------22--19-22--19-22---L----|---L---22----26----29------|
-------------------------------|---------------------------|
--------7---4--7---4--7---L----|---L----7----11----14------|
-------------------------------|---------------------------|
-------------------------------|---------------------------|
-------------------------------|---------------------------|


  Bass Riff G                                               
  Q            S  E  S H           Q     E.   S  E  Q.      
--------------26-26-------------|-------24---24-24---------|
--------------------------------|--------------------------|
--------------11-11-------------|--------9----9--9---------|
--------------------------------|--------------------------|
--------------------------------|--------------------------|
--------------------------------|--------------------------|


  Q     S  E  S H           Q     E.   S  E  Q.      
-------24-24-------------|-------26---26-26---------|
-------------------------|--------------------------|
--------9--9-------------|-------11---11-11---------|
-------------------------|--------------------------|
-------------------------|--------------------------|
-------------------------|--------------------------|


  Q     E   S  E   S  E   Q        S S  Q     Q     Q.      
-------22--19-22--19-22---L----|---L---22----26----29------|
-------------------------------|---------------------------|
--------7---4--7---4--7---L----|---L----7----11----14------|
-------------------------------|---------------------------|
-------------------------------|---------------------------|
-------------------------------|---------------------------|


  Bass Riff H                                               
  Q            S  E  S H           Q     E.   S  E  Q.      
--------------26-26-------------|-------24---24-24---------|
--------------------------------|--------------------------|
--------------11-11-------------|--------9----9--9---------|
--------------------------------|--------------------------|
--------------------------------|--------------------------|
--------------------------------|--------------------------|


  Q     S  E  S H           Q     E.   S  E  Q.      
-------24-24-------------|-------26---26-26---------|
-------------------------|--------------------------|
--------9--9-------------|-------11---11-11---------|
-------------------------|--------------------------|
-------------------------|--------------------------|
-------------------------|--------------------------|


  Q     E   S  E   S  E   Q        S S  Q     Q     Q.      
-------22--19-22--19-22---L----|---L---22----26----29------|
-------------------------------|---------------------------|
--------7---4--7---4--7---L----|---L----7----11----14------|
-------------------------------|---------------------------|
-------------------------------|---------------------------|
-------------------------------|---------------------------|


  Bass Riff I                                               
  Q            S  E  S H           Q     E.   S  E  Q.      
--------------26-26-------------|-------24---24-24---------|
--------------------------------|--------------------------|
--------------11-11-------------|--------9----9--9---------|
--------------------------------|--------------------------|
--------------------------------|--------------------------|
--------------------------------|--------------------------|


  Q     S  E  S H           Q     E.   S  E  Q.      
-------24-24-------------|-------26---26-26---------|
-------------------------|--------------------------|
--------9--9-------------|-------11---11-11---------|
-------------------------|--------------------------|
-------------------------|--------------------------|
-------------------------|--------------------------|


  Q     E   S  E   S  E   Q        S S  Q     Q     Q.      
-------22--19-22--19-22---L----|---L---22----26----29------|
-------------------------------|---------------------------|
--------7---4--7---4--7---L----|---L----7----11----14------|
-------------------------------|---------------------------|
-------------------------------|---------------------------|
-------------------------------|---------------------------|


  Bass Riff J                                               
  Q            S  E  S H           Q     E.   S  E  Q.      
--------------26-26-------------|-------24---24-24---------|
--------------------------------|--------------------------|
--------------11-11-------------|--------9----9--9---------|
--------------------------------|--------------------------|
--------------------------------|--------------------------|
--------------------------------|--------------------------|


  Q     S  E  S H           Q     E.   S  E  Q.      
-------24-24-------------|-------26---26-26---------|
-------------------------|--------------------------|
--------9--9-------------|-------11---11-11---------|
-------------------------|--------------------------|
-------------------------|--------------------------|
-------------------------|--------------------------|


  Q     E   S  E   S  E   Q        S S  Q     Q     Q.      
-------22--19-22--19-22---L----|---L---22----26----29------|
-------------------------------|---------------------------|
--------7---4--7---4--7---L----|---L----7----11----14------|
-------------------------------|---------------------------|
-------------------------------|---------------------------|
-------------------------------|---------------------------|


  Bass Riff K                                               
  Q            S  E  S H           Q     E.   S  E  Q.      
--------------26-26-------------|-------24---24-24---------|
--------------------------------|--------------------------|
--------------11-11-------------|--------9----9--9---------|
--------------------------------|--------------------------|
--------------------------------|--------------------------|
--------------------------------|--------------------------|


  Q     S  E  S H           Q     E.   S  E  Q.      
-------24-24-------------|-------26---26-26---------|
-------------------------|--------------------------|
--------9--9-------------|-------11---11-11---------|
-------------------------|--------------------------|
-------------------------|--------------------------|
-------------------------|--------------------------|


  Q     E   S  E   S  E   Q        S S  Q     Q     Q.      
-------22--19-22--19-22---L----|---L---22----26----29------|
-------------------------------|---------------------------|
--------7---4--7---4--7---L----|---L----7----11----14------|
-------------------------------|---------------------------|
-------------------------------|---------------------------|
-------------------------------|---------------------------|


  Bass Riff L/Outro                                               
  Q                  S  E  S H           Q     E.   S  E  Q.      
--------------------26-26-------------|-------24---24-24---------|
--------------------------------------|--------------------------|
--------------------11-11-------------|--------9----9--9---------|
--------------------------------------|--------------------------|
--------------------------------------|--------------------------|
--------------------------------------|--------------------------|


  Q     S  E  S H           Q     E.   S  E  Q.      
-------24-24-------------|-------26---26-26---------|
-------------------------|--------------------------|
--------9--9-------------|-------11---11-11---------|
-------------------------|--------------------------|
-------------------------|--------------------------|
-------------------------|--------------------------|


  Q     E   S  E   S  E   Q        S S  Q     Q     Q.      
-------22--19-22--19-22---L----|---L---22----26----29------|
-------------------------------|---------------------------|
--------7---4--7---4--7---L----|---L----7----11----14------|
-------------------------------|---------------------------|
-------------------------------|---------------------------|
-------------------------------|---------------------------|


  Q     S  E  S H          
-------26-26-------------||
-------------------------||
-------11-11-------------||
-------------------------||
-------------------------||
-------------------------||





Trombone #1 / Efect:


     S  
E||----|
B||----|
G||----|
D||----|
A||----|
E||----|


   Intro                                                                      
   |----3---|  |--3--|  |--3--|  |--3--|  |--3--|  |--3--|  |--3--|  |--3--|  
   T     T  T  T  T  T  T  T  T  T  T  T  T  T  T  T  T  T  T  T  T  T  T  T  
--------20-25-30-25-20----20-25-30-25-20----20-25-30-25-20----20-25-30-25-20-|
--20-------------------20----------------20----------------20----------------|
-----------------------------------------------------------------------------|
-----------------------------------------------------------------------------|
-----------------------------------------------------------------------------|
-----------------------------------------------------------------------------|


   |--3--|  |--3--|  |--3--|  |--3--|  |--3--|  |--3--|  |--3--|  |--3--|  |--3-
   T  T  T  T  T  T  T  T  T  T  T  T  T  T  T  T  T  T  T  T  T  T  T  T  T  T 
-----20-25-30-25-20----20-25-30-25-20----20-25-30-25-20----20-25-30-25-20----20-
--20----------------20----------------20----------------20----------------20----
--------------------------------------------------------------------------------
--------------------------------------------------------------------------------
--------------------------------------------------------------------------------
--------------------------------------------------------------------------------


   |--3--|  |--3--|  |--3--|  |--3--|  |--3--|  |--3--|  |--3--|  |--3--|  |--3-
   T  T  T  T  T  T  T  T  T  T  T  T  T  T  T  T  T  T  T  T  T  T  T  T  T  T 
-----20-25-30-25-20----20-25-30-25-20----20-25-30-25-20----20-25-30-25-20----20-
--20----------------20----------------20----------------20----------------20----
--------------------------------------------------------------------------------
--------------------------------------------------------------------------------
--------------------------------------------------------------------------------
--------------------------------------------------------------------------------


   Riff A                                                                       
   |----3----|  |--3--|  |--3--|  |--3--|  |--3--|  |--3--|  |--3--|  |--3--|  |
   T      T  T  T  T  T  T  T  T  T  T  T  T  T  T  T  T  T  T  T  T  T  T  T  T
---------20-25-30-25-20----20-25-30-25-20----20-25-30-25-20----20-25-30-25-20---
--20--------------------20----------------20----------------20----------------20
--------------------------------------------------------------------------------
--------------------------------------------------------------------------------
--------------------------------------------------------------------------------
--------------------------------------------------------------------------------


   |--3--|  |--3--|  |--3--|  |--3--|  |--3--|  |--3--|  |--3--|  |--3--|  |--3-
   T  T  T  T  T  T  T  T  T  T  T  T  T  T  T  T  T  T  T  T  T  T  T  T  T  T 
-----20-25-30-25-20----20-25-30-25-20----20-25-30-25-20----20-25-30-25-20----20-
--20----------------20----------------20----------------20----------------20----
--------------------------------------------------------------------------------
--------------------------------------------------------------------------------
--------------------------------------------------------------------------------
--------------------------------------------------------------------------------


   |--3--|  |--3--|  |--3--|  |--3--|  |--3--|  |--3--|  |--3--|  |--3--|  |--3-
   T  T  T  T  T  T  T  T  T  T  T  T  T  T  T  T  T  T  T  T  T  T  T  T  T  T 
-----20-25-30-25-20----20-25-30-25-20----20-25-30-25-20----20-25-30-25-20----20-
--20----------------20----------------20----------------20----------------20----
--------------------------------------------------------------------------------
--------------------------------------------------------------------------------
--------------------------------------------------------------------------------
--------------------------------------------------------------------------------


   |--3--|  |--3--|  |--3--|  |--3--|  |--3--|  |--3--|  |--3--|  |--3--|  |--3-
   T  T  T  T  T  T  T  T  T  T  T  T  T  T  T  T  T  T  T  T  T  T  T  T  T  T 
-----20-25-30-25-20----20-25-30-25-20----20-25-30-25-20----20-25-30-25-20----20-
--20----------------20----------------20----------------20----------------20----
--------------------------------------------------------------------------------
--------------------------------------------------------------------------------
--------------------------------------------------------------------------------
--------------------------------------------------------------------------------


   Verso Riff 1                                                                 
   |-------3-------|  |--3--|  |--3--|  |--3--|  |--3--|  |--3--|  |--3--|  |--3
   T            T  T  T  T  T  T  T  T  T  T  T  T  T  T  T  T  T  T  T  T  T  T
---------------20-25-30-25-20----20-25-30-25-20----20-25-30-25-20----20-25-30-25
--20--------------------------20----------------20----------------20------------
--------------------------------------------------------------------------------
--------------------------------------------------------------------------------
--------------------------------------------------------------------------------
--------------------------------------------------------------------------------


  W                   W                   W                   W                 
-------------------|-------------------|-------------------|-------------------|
-------------------|-------------------|-------------------|-------------------|
-------------------|-------------------|-------------------|-------------------|
-------------------|-------------------|-------------------|-------------------|
-------------------|-------------------|-------------------|-------------------|
-------------------|-------------------|-------------------|-------------------|


                                                              Coro              
  W                   W                   W                   W                 
-------------------|-------------------|-------------------|-------------------|
-------------------|-------------------|-------------------|-------------------|
-------------------|-------------------|-------------------|-------------------|
-------------------|-------------------|-------------------|-------------------|
-------------------|-------------------|-------------------|-------------------|
-------------------|-------------------|-------------------|-------------------|


  W                   E   S  E   E.   H           H         E.   E.   E   
-------------------|---------------------------|----------------11---13--|
-------------------|-----13-15--16----L--------|-----------13------------|
-------------------|---------------------------|-----------------8---10--|
-------------------|-----10-12--13----L--------|-----------10------------|
-------------------|---------------------------|-------------------------|
-------------------|---------------------------|-------------------------|


   Q.     S  E   E   S  E  E     H        E   E.   E.   
---L--------13--13--13-13-----|------------------------|
------------13--13--13-13-----|--------------16--------|
---L--------10--10--10-10-----|-------------------17---|
------------------------------|--------------13--------|
------------------------------|-------------------15---|
------------------------------|------------------------|


                                    Verso Riff 2                          
   E.   S  E.   E   E   S  E  E     W                   W                 
---------------------------------|-------------------|-------------------|
---------------------------------|-------------------|-------------------|
---L---17-17---17--17--15-17-----|-------------------|-------------------|
---L---17-17---17--17--15-17-----|-------------------|-------------------|
---L---15-15---15--15--13-15-----|-------------------|-------------------|
---------------------------------|-------------------|-------------------|


  W                   W                   W                   W                 
-------------------|-------------------|-------------------|-------------------|
-------------------|-------------------|-------------------|-------------------|
-------------------|-------------------|-------------------|-------------------|
-------------------|-------------------|-------------------|-------------------|
-------------------|-------------------|-------------------|-------------------|
-------------------|-------------------|-------------------|-------------------|


   Coro                                              Riff A                 
   W                   Q.     S  E   E   S  E  E     H        E   E.   E.   
--13----------------|-----------13--13--13-13-----|------------------------|
--------------------|-----------13--13--13-13-----|--------------16--------|
--10----------------|-----------10--10--10-10-----|-------------------17---|
--------------------|-----------------------------|--------------13--------|
--------------------|-----------------------------|-------------------15---|
--------------------|-----------------------------|------------------------|


   W                   W                   W                 
--------------------|-------------------|-------------------|
--------------------|-------------------|-------------------|
---L----------------|-------------------|-------------------|
--------------------|-------------------|-------------------|
---L----------------|-------------------|-------------------|
--------------------|-------------------|-------------------|


  Verso Riff 1                                                                  
  W                   W                   W                   W                 
-------------------|-------------------|-------------------|-------------------|
-------------------|-------------------|-------------------|-------------------|
-------------------|-------------------|-------------------|-------------------|
-------------------|-------------------|-------------------|-------------------|
-------------------|-------------------|-------------------|-------------------|
-------------------|-------------------|-------------------|-------------------|


  W                   W                   W                   W                 
-------------------|-------------------|-------------------|-------------------|
-------------------|-------------------|-------------------|-------------------|
-------------------|-------------------|-------------------|-------------------|
-------------------|-------------------|-------------------|-------------------|
-------------------|-------------------|-------------------|-------------------|
-------------------|-------------------|-------------------|-------------------|


  Coro                                                              
  W                   W                   E   S  E   E.   H         
-------------------|-------------------|---------------------------|
-------------------|-------------------|-----13-15--16----L--------|
-------------------|-------------------|---------------------------|
-------------------|-------------------|-----10-12--13----L--------|
-------------------|-------------------|---------------------------|
-------------------|-------------------|---------------------------|


  H         E.   S  E.   S     E.   S  E.   E   E   S  E  E   
---------------------------|---------------13--13--13-13-----|
-----------13---13-13---13-|--13---13-13---13--13--13-13-----|
---------------------------|---------------------------------|
-----------10---10-10---10-|--10---10-10---15--15--15-15-----|
---------------------------|---------------------------------|
------------8----8--8----8-|---8----8--8---13--13--13-13-----|


  H        E   E.   E.      E.   S  E.   E   E   S  S  S  S  S  
------------------------|--------------------------------------|
--------------16--------|--13---13-13--------------------------|
-------------------17---|--------------------------------------|
--------------13--------|--10---10-10---15--15--15-15-15-15-15-|
-------------------15---|--------------------------------------|
------------------------|---8----8--8---13--13--13-13-13-13-13-|


  H         E.   S  E.   S     E.   S  E.   E   E   S  E  E   
---------------------------|---------------13--13--13-13-----|
-----------13---13-13---13-|--13---13-13---13--13--13-13-----|
---------------------------|---------------------------------|
-----------10---10-10---10-|--10---10-10---15--15--15-15-----|
---------------------------|---------------------------------|
------------8----8--8----8-|---8----8--8---13--13--13-13-----|


                                                Bass Riff A                    
  H        E   E.   E.      W                   Q            S  E  S H         
------------------------|--------------------|--------------------------------|
--------------16--------|--------------------|--------------------------------|
-------------------17---|---L----------------|--------------11-11-------------|
--------------13--------|--------------------|--------------------------------|
-------------------15---|---L----------------|---------------9--9-------------|
------------------------|--------------------|--------------------------------|


  Q    E.  S E  Q.        Q    S E  S H           Q     E.   S  E  Q.      
-----------------------|-----------------------|--------------------------|
-----------------------|-----------------------|--------------------------|
-------9---9-9---------|-------9-9-------------|-------11---11-11---------|
-----------------------|-----------------------|--------------------------|
-------7---7-7---------|-------7-7-------------|--------9----9--9---------|
-----------------------|-----------------------|--------------------------|


                                                      Bass Riff B/Coro  
  Q    E  S E  S E  Q       S S Q     Q     Q.        W                 
-------------------------|-------------------------|-------------------|
-------------------------|-------------------------|-------------------|
-------7--4-7--4-7--L----|--L---7----11----14------|-------------------|
-------------------------|-------------------------|-------------------|
-------5--2-5--2-5--L----|--L---5-----9----12------|-------------------|
-------------------------|-------------------------|-------------------|


  W                   W                   W                   W                 
-------------------|-------------------|-------------------|-------------------|
-------------------|-------------------|-------------------|-------------------|
-------------------|-------------------|-------------------|-------------------|
-------------------|-------------------|-------------------|-------------------|
-------------------|-------------------|-------------------|-------------------|
-------------------|-------------------|-------------------|-------------------|


                      Bass Riff C                                               
  W                   W                   W                   W                 
-------------------|-------------------|-------------------|-------------------|
-------------------|-------------------|-------------------|-------------------|
-------------------|-------------------|-------------------|-------------------|
-------------------|-------------------|-------------------|-------------------|
-------------------|-------------------|-------------------|-------------------|
-------------------|-------------------|-------------------|-------------------|


                                                              Bass Riff D       
  W                   W                   W                   W                 
-------------------|-------------------|-------------------|-------------------|
-------------------|-------------------|-------------------|-------------------|
-------------------|-------------------|-------------------|-------------------|
-------------------|-------------------|-------------------|-------------------|
-------------------|-------------------|-------------------|-------------------|
-------------------|-------------------|-------------------|-------------------|


  W                   W                   W                   W                 
-------------------|-------------------|-------------------|-------------------|
-------------------|-------------------|-------------------|-------------------|
-------------------|-------------------|-------------------|-------------------|
-------------------|-------------------|-------------------|-------------------|
-------------------|-------------------|-------------------|-------------------|
-------------------|-------------------|-------------------|-------------------|


                      Bass Riff E                                               
  W                   Q            S  E  S H           Q     E.   S  E  Q.      
-------------------|--------------------------------|--------------------------|
-------------------|--------------19-19-------------|-------17---17-17---------|
-------------------|--------------------------------|--------------------------|
-------------------|--------------------------------|--------------------------|
-------------------|---------------9--9-------------|--------7----7--7---------|
-------------------|--------------------------------|--------------------------|


  Q     S  E  S H           Q     E.   S  E  Q.      
-------------------------|--------------------------|
-------17-17-------------|-------19---19-19---------|
-------------------------|--------------------------|
-------------------------|--------------------------|
--------7--7-------------|--------9----9--9---------|
-------------------------|--------------------------|


  Q     E   S  E   S  E   Q        S S  Q     Q     Q.      
-------------------------------|---------------------------|
-------15--12-15--12-15---L----|---L---15----19----22------|
-------------------------------|---------------------------|
-------------------------------|---------------------------|
--------5---2--5---2--5---L----|---L----5-----9----12------|
-------------------------------|---------------------------|


  Bass Riff F                                               
  Q            S  E  S H           Q     E.   S  E  Q.      
--------------------------------|--------------------------|
--------------19-19-------------|-------17---17-17---------|
--------------------------------|--------------------------|
--------------------------------|--------------------------|
---------------9--9-------------|--------7----7--7---------|
--------------------------------|--------------------------|


  Q     S  E  S H           Q     E.   S  E  Q.      
-------------------------|--------------------------|
-------17-17-------------|-------19---19-19---------|
-------------------------|--------------------------|
-------------------------|--------------------------|
--------7--7-------------|--------9----9--9---------|
-------------------------|--------------------------|


  Q     E   S  E   S  E   Q        S S  Q     Q     Q.      
-------------------------------|---------------------------|
-------15--12-15--12-15---L----|---L---15----19----22------|
-------------------------------|---------------------------|
-------------------------------|---------------------------|
--------5---2--5---2--5---L----|---L----5-----9----12------|
-------------------------------|---------------------------|


  Bass Riff G                                               
  Q            S  E  S H           Q     E.   S  E  Q.      
--------------------------------|--------------------------|
--------------19-19-------------|-------17---17-17---------|
--------------------------------|--------------------------|
--------------------------------|--------------------------|
---------------9--9-------------|--------7----7--7---------|
--------------------------------|--------------------------|


  Q     S  E  S H           Q     E.   S  E  Q.      
-------------------------|--------------------------|
-------17-17-------------|-------19---19-19---------|
-------------------------|--------------------------|
-------------------------|--------------------------|
--------7--7-------------|--------9----9--9---------|
-------------------------|--------------------------|


  Q     E   S  E   S  E   Q        S S  Q     Q     Q.      
-------------------------------|---------------------------|
-------15--12-15--12-15---L----|---L---15----19----22------|
-------------------------------|---------------------------|
-------------------------------|---------------------------|
--------5---2--5---2--5---L----|---L----5-----9----12------|
-------------------------------|---------------------------|


  Bass Riff H                                               
  Q            S  E  S H           Q     E.   S  E  Q.      
--------------------------------|--------------------------|
--------------19-19-------------|-------17---17-17---------|
--------------------------------|--------------------------|
--------------------------------|--------------------------|
---------------9--9-------------|--------7----7--7---------|
--------------------------------|--------------------------|


  Q     S  E  S H           Q     E.   S  E  Q.      
-------------------------|--------------------------|
-------17-17-------------|-------19---19-19---------|
-------------------------|--------------------------|
-------------------------|--------------------------|
--------7--7-------------|--------9----9--9---------|
-------------------------|--------------------------|


  Q     E   S  E   S  E   Q        S S  Q     Q     Q.      
-------------------------------|---------------------------|
-------15--12-15--12-15---L----|---L---15----19----22------|
-------------------------------|---------------------------|
-------------------------------|---------------------------|
--------5---2--5---2--5---L----|---L----5-----9----12------|
-------------------------------|---------------------------|


  Bass Riff I                                               
  Q            S  E  S H           Q     E.   S  E  Q.      
--------------------------------|--------------------------|
--------------19-19-------------|-------17---17-17---------|
--------------------------------|--------------------------|
--------------------------------|--------------------------|
---------------9--9-------------|--------7----7--7---------|
--------------------------------|--------------------------|


  Q     S  E  S H           Q     E.   S  E  Q.      
-------------------------|--------------------------|
-------17-17-------------|-------19---19-19---------|
-------------------------|--------------------------|
-------------------------|--------------------------|
--------7--7-------------|--------9----9--9---------|
-------------------------|--------------------------|


  Q     E   S  E   S  E   Q        S S  Q     Q     Q.      
-------------------------------|---------------------------|
-------15--12-15--12-15---L----|---L---15----19----22------|
-------------------------------|---------------------------|
-------------------------------|---------------------------|
--------5---2--5---2--5---L----|---L----5-----9----12------|
-------------------------------|---------------------------|


  Bass Riff J                                               
  Q            S  E  S H           Q     E.   S  E  Q.      
--------------------------------|--------------------------|
--------------19-19-------------|-------17---17-17---------|
--------------------------------|--------------------------|
--------------------------------|--------------------------|
---------------9--9-------------|--------7----7--7---------|
--------------------------------|--------------------------|


  Q     S  E  S H           Q     E.   S  E  Q.      
-------------------------|--------------------------|
-------17-17-------------|-------19---19-19---------|
-------------------------|--------------------------|
-------------------------|--------------------------|
--------7--7-------------|--------9----9--9---------|
-------------------------|--------------------------|


  Q     E   S  E   S  E   Q        S S  Q     Q     Q.      
-------------------------------|---------------------------|
-------15--12-15--12-15---L----|---L---15----19----22------|
-------------------------------|---------------------------|
-------------------------------|---------------------------|
--------5---2--5---2--5---L----|---L----5-----9----12------|
-------------------------------|---------------------------|


  Bass Riff K                                               
  Q            S  E  S H           Q     E.   S  E  Q.      
--------------------------------|--------------------------|
--------------19-19-------------|-------17---17-17---------|
--------------------------------|--------------------------|
--------------------------------|--------------------------|
---------------9--9-------------|--------7----7--7---------|
--------------------------------|--------------------------|


  Q     S  E  S H           Q     E.   S  E  Q.      
-------------------------|--------------------------|
-------17-17-------------|-------19---19-19---------|
-------------------------|--------------------------|
-------------------------|--------------------------|
--------7--7-------------|--------9----9--9---------|
-------------------------|--------------------------|


  Q     E   S  E   S  E   Q        S S  Q     Q     Q.      
-------------------------------|---------------------------|
-------15--12-15--12-15---L----|---L---15----19----22------|
-------------------------------|---------------------------|
-------------------------------|---------------------------|
--------5---2--5---2--5---L----|---L----5-----9----12------|
-------------------------------|---------------------------|


  Bass Riff L/Outro                                               
  Q                  S  E  S H           Q     E.   S  E  Q.      
--------------------------------------|--------------------------|
--------------------19-19-------------|-------17---17-17---------|
--------------------------------------|--------------------------|
--------------------------------------|--------------------------|
---------------------9--9-------------|--------7----7--7---------|
--------------------------------------|--------------------------|


  Q     S  E  S H           Q     E.   S  E  Q.      
-------------------------|--------------------------|
-------17-17-------------|-------19---19-19---------|
-------------------------|--------------------------|
-------------------------|--------------------------|
--------7--7-------------|--------9----9--9---------|
-------------------------|--------------------------|


  Q     E   S  E   S  E   Q        S S  Q     Q     Q.      
-------------------------------|---------------------------|
-------15--12-15--12-15---L----|---L---15----19----22------|
-------------------------------|---------------------------|
-------------------------------|---------------------------|
--------5---2--5---2--5---L----|---L----5-----9----12------|
-------------------------------|---------------------------|


  Q     S  E  S H          
-------------------------||
-------19-19-------------||
-------------------------||
-------------------------||
--------9--9-------------||
-------------------------||




Trombone #2:


          Intro                                               Riff A            
     S    H           W                   W                   W                 
E||----|-----------|-------------------|-------------------|-------------------|
B||----|-----------|-------------------|-------------------|-------------------|
G||----|-----------|-------------------|-------------------|-------------------|
D||----|-----------|-------------------|-------------------|-------------------|
A||----|-----------|-------------------|-------------------|-------------------|
E||----|-----------|-------------------|-------------------|-------------------|


                                                              Verso Riff 1      
  W                   W                   W                   W                 
-------------------|-------------------|-------------------|-------------------|
-------------------|-------------------|-------------------|-------------------|
-------------------|-------------------|-------------------|-------------------|
-------------------|-------------------|-------------------|-------------------|
-------------------|-------------------|-------------------|-------------------|
-------------------|-------------------|-------------------|-------------------|


  W                   W                   W                   W                 
-------------------|-------------------|-------------------|-------------------|
-------------------|-------------------|-------------------|-------------------|
-------------------|-------------------|-------------------|-------------------|
-------------------|-------------------|-------------------|-------------------|
-------------------|-------------------|-------------------|-------------------|
-------------------|-------------------|-------------------|-------------------|


  W                   W                   W                 
-------------------|-------------------|-------------------|
-------------------|-------------------|-------------------|
-------------------|-------------------|-------------------|
-------------------|-------------------|-------------------|
-------------------|-------------------|-------------------|
-------------------|-------------------|-------------------|


  Coro                                                 
  E.   S E  E  E.  S E  E     E.  S E  E  E.  S E  E   
---------------------------|--------------------------|
---------------------------|--------------------------|
---------------------------|--------------------------|
--6----6-6-----6---6-6-----|--6---6-6-----6---6-6-----|
--6----6-6-----6---6-6-----|--6---6-6-----6---6-6-----|
---------------------------|--------------------------|


  E.  S E  E  E.  S E  E     E.  S E  E  E.  S E  E   
--------------------------|--------------------------|
--------------------------|--------------------------|
--------------------------|--------------------------|
--5---5-5-----5---5-5-----|--3---3-3-----3---3-3-----|
--3---3-3-----3---3-3-----|--3---3-3-----3---3-3-----|
--------------------------|--------------------------|


  E.  S E  E  E.  S E  E     E.  S E  E  E.  S E  E   
--------------------------|--------------------------|
--------------------------|--------------------------|
--------------------------|--------------------------|
--3---3-3-----3---3-3-----|--5---5-5-----5---5-5-----|
--3---3-3-----3---3-3-----|--3---3-3-----3---3-3-----|
--------------------------|--------------------------|


                             Verso Riff 2                      
  E.  S E  E  E.  S E  E     E.           S E  E  E.  S E  E   
--------------------------|-----------------------------------|
--------------------------|-----------------------------------|
--------------------------|-----------------------------------|
--5---5-5-----5---5-5-----|--8------------8-8-----5---5-5-----|
--3---3-3-----3---3-3-----|--8------------8-8-----6---6-6-----|
--------------------------|-----------------------------------|


  E.  S E  E  E.  S E  E     E.  S E  E  E.  S E  E     Q    Q    E.  S E  E   
--------------------------|--------------------------|------------------------|
--------------------------|--------------------------|------------------------|
--------------------------|--------------------------|------------------------|
--8---8-8-----5---5-5-----|--8---8-8-----5---5-5-----|--5----5----5---5-5-----|
--8---8-8-----6---6-6-----|--8---8-8-----6---6-6-----|--3----5----6---6-6-----|
--------------------------|--------------------------|------------------------|


                                                      Coro                      
  Q    Q    E.  S E  E     E.  S E.  S E.  S E  E     E.   S E  E  E.  S E  E   
------------------------|--------------------------|---------------------------|
------------------------|--------------------------|---------------------------|
------------------------|--------------------------|---------------------------|
--5----5----5---5-5-----|--5---5-3---3-5---5-5-----|--3----3-3-----3---3-3-----|
--6----5----3---3-3-----|--3---3-3---3-5---5-5-----|--3----3-3-----3---3-3-----|
------------------------|--------------------------|---------------------------|


                             Riff A                      
  E.  S E  E  E.  S E  E     E.     S E  E  E.  S E  E   
--------------------------|-----------------------------|
--------------------------|-----------------------------|
--------------------------|-----------------------------|
--3---3-3-----3---3-3-----|--5------5-5-----5---5-5-----|
--3---3-3-----3---3-3-----|--3------3-3-----3---3-3-----|
--------------------------|-----------------------------|


  E.  S E  E  E.  S E  E     E.  S E  E  E.  S E  E   
--------------------------|--------------------------|
--------------------------|--------------------------|
--------------------------|--------------------------|
--5---5-5-----5---5-5-----|--5---5-5-----5---5-5-----|
--3---3-3-----3---3-3-----|--3---3-3-----3---3-3-----|
--------------------------|--------------------------|


                             Verso Riff 1                          
  E.  S E  E  E.  S E  E     W                   W                 
--------------------------|-------------------|-------------------|
--------------------------|-------------------|-------------------|
--------------------------|-------------------|-------------------|
--5---5-5-----5---5-5-----|-------------------|-------------------|
--3---3-3-----3---3-3-----|-------------------|-------------------|
--------------------------|-------------------|-------------------|


  W                   W                   W                   W                 
-------------------|-------------------|-------------------|-------------------|
-------------------|-------------------|-------------------|-------------------|
-------------------|-------------------|-------------------|-------------------|
-------------------|-------------------|-------------------|-------------------|
-------------------|-------------------|-------------------|-------------------|
-------------------|-------------------|-------------------|-------------------|


                                          Coro                      
  W                   W                   E.   S E  E  E.  S E  E   
-------------------|-------------------|---------------------------|
-------------------|-------------------|---------------------------|
-------------------|-------------------|---------------------------|
-------------------|-------------------|--6----6-6-----6---6-6-----|
-------------------|-------------------|--6----6-6-----6---6-6-----|
-------------------|-------------------|---------------------------|


  E.  S E  E  E.  S E  E     E.  S E  E  E.  S E  E   
--------------------------|--------------------------|
--------------------------|--------------------------|
--------------------------|--------------------------|
--6---6-6-----6---6-6-----|--5---5-5-----5---5-5-----|
--6---6-6-----6---6-6-----|--3---3-3-----3---3-3-----|
--------------------------|--------------------------|


  E.  S E  E  E.  S E  E     E.  S E  E  E.  S E  E   
--------------------------|--------------------------|
--------------------------|--------------------------|
--------------------------|--------------------------|
--3---3-3-----3---3-3-----|--3---3-3-----3---3-3-----|
--3---3-3-----3---3-3-----|--3---3-3-----3---3-3-----|
--------------------------|--------------------------|


  E.  S E  E  E.  S E  E     E.  S E  E  E.  S E  E   
--------------------------|--------------------------|
--------------------------|--------------------------|
--------------------------|--------------------------|
--5---5-5-----5---5-5-----|--5---5-5-----5---5-5-----|
--3---3-3-----3---3-3-----|--3---3-3-----3---3-3-----|
--------------------------|--------------------------|


  E.  S E  E  E.  S E  E     E.  S E  E  E.  S E  E   
--------------------------|--------------------------|
--------------------------|--------------------------|
--------------------------|--------------------------|
--3---3-3-----3---3-3-----|--3---3-3-----3---3-3-----|
--3---3-3-----3---3-3-----|--3---3-3-----3---3-3-----|
--------------------------|--------------------------|


                                                   Bass Riff A                  
  E.  S E  E  E.  S E  E     E.  S H.              Q           E  S E.  Q.      
--------------------------|---------------------|------------------------------|
--------------------------|---------------------|------------------------------|
--------------------------|---------------------|------------------------------|
--5---5-5-----5---5-5-----|--5------------------|--9-----------9--9-9----------|
--3---3-3-----3---3-3-----|--3------------------|--9-----------9--9-9----------|
--------------------------|---------------------|------------------------------|


  Q    E  S E.  Q.        Q    E  S E.  Q.        Q    E  S E.  Q.      
-----------------------|-----------------------|-----------------------|
-----------------------|-----------------------|-----------------------|
-----------------------|-----------------------|-----------------------|
-----------------------|-----------------------|--9----9--9-9----------|
--9----9--9-9----------|--9----9--9-9----------|--9----9--9-9----------|
--9----9--9-9----------|--9----9--9-9----------|-----------------------|


  Q    E  S E.  Q.        Q    E  S E.  Q.      
-----------------------|-----------------------|
-----------------------|-----------------------|
-----------------------|-----------------------|
--5----5--5-5----------|-----------------------|
--5----5--5-5----------|--5----5--5-5----------|
-----------------------|--5----5--5-5----------|


  Bass Riff B/Coro                                          
  Q                E  S E.  Q.        Q    E  S E.  Q.      
-----------------------------------|-----------------------|
-----------------------------------|-----------------------|
-----------------------------------|-----------------------|
--9----------------9--9-9----------|-----------------------|
--9----------------9--9-9----------|--9----9--9-9----------|
-----------------------------------|--9----9--9-9----------|


  Q    E  S E.  Q.        Q    E  S E.  Q.        Q    E  S E.  Q.      
-----------------------|-----------------------|-----------------------|
-----------------------|-----------------------|-----------------------|
-----------------------|-----------------------|-----------------------|
-----------------------|--9----9--9-9----------|--5----5--5-5----------|
--9----9--9-9----------|--9----9--9-9----------|--5----5--5-5----------|
--9----9--9-9----------|-----------------------|-----------------------|


                          Bass Riff C                                          
  Q    E  S E.  Q.        Q           E  S E.  Q.        Q    E  S E.  Q.      
-----------------------|------------------------------|-----------------------|
-----------------------|------------------------------|-----------------------|
-----------------------|------------------------------|-----------------------|
-----------------------|--9-----------9--9-9----------|-----------------------|
--5----5--5-5----------|--9-----------9--9-9----------|--9----9--9-9----------|
--5----5--5-5----------|------------------------------|--9----9--9-9----------|


  Q    E  S E.  Q.        Q    E  S E.  Q.        Q    E  S E.  Q.      
-----------------------|-----------------------|-----------------------|
-----------------------|-----------------------|-----------------------|
-----------------------|-----------------------|-----------------------|
-----------------------|--9----9--9-9----------|--5----5--5-5----------|
--9----9--9-9----------|--9----9--9-9----------|--5----5--5-5----------|
--9----9--9-9----------|-----------------------|-----------------------|


                          Bass Riff D                                          
  Q    E  S E.  Q.        Q           E  S E.  Q.        Q    E  S E.  Q.      
-----------------------|------------------------------|-----------------------|
-----------------------|------------------------------|-----------------------|
-----------------------|------------------------------|-----------------------|
-----------------------|--9-----------9--9-9----------|-----------------------|
--5----5--5-5----------|--9-----------9--9-9----------|--9----9--9-9----------|
--5----5--5-5----------|------------------------------|--9----9--9-9----------|


  Q    E  S E.  Q.        Q    E  S E.  Q.        Q    E  S E.  Q.      
-----------------------|-----------------------|-----------------------|
-----------------------|-----------------------|-----------------------|
-----------------------|-----------------------|-----------------------|
-----------------------|--9----9--9-9----------|--5----5--5-5----------|
--9----9--9-9----------|--9----9--9-9----------|--5----5--5-5----------|
--9----9--9-9----------|-----------------------|-----------------------|


                          Bass Riff E                                          
  Q    E  S E.  Q.        Q           E  S E.  Q.        Q    E  S E.  Q.      
-----------------------|------------------------------|-----------------------|
-----------------------|------------------------------|-----------------------|
-----------------------|------------------------------|-----------------------|
-----------------------|--9-----------9--9-9----------|-----------------------|
--5----5--5-5----------|--9-----------9--9-9----------|--9----9--9-9----------|
--5----5--5-5----------|------------------------------|--9----9--9-9----------|


  Q    E  S E.  Q.        Q    E  S E.  Q.        Q    E  S E.  Q.      
-----------------------|-----------------------|-----------------------|
-----------------------|-----------------------|-----------------------|
-----------------------|-----------------------|-----------------------|
-----------------------|--9----9--9-9----------|--5----5--5-5----------|
--9----9--9-9----------|--9----9--9-9----------|--5----5--5-5----------|
--9----9--9-9----------|-----------------------|-----------------------|


                          Bass Riff F                                          
  Q    E  S E.  Q.        Q           E  S E.  Q.        Q    E  S E.  Q.      
-----------------------|------------------------------|-----------------------|
-----------------------|------------------------------|-----------------------|
-----------------------|------------------------------|-----------------------|
-----------------------|--9-----------9--9-9----------|-----------------------|
--5----5--5-5----------|--9-----------9--9-9----------|--9----9--9-9----------|
--5----5--5-5----------|------------------------------|--9----9--9-9----------|


  Q    E  S E.  Q.        Q    E  S E.  Q.        Q    E  S E.  Q.      
-----------------------|-----------------------|-----------------------|
-----------------------|-----------------------|-----------------------|
-----------------------|-----------------------|-----------------------|
-----------------------|--9----9--9-9----------|--5----5--5-5----------|
--9----9--9-9----------|--9----9--9-9----------|--5----5--5-5----------|
--9----9--9-9----------|-----------------------|-----------------------|


                          Bass Riff G                                          
  Q    E  S E.  Q.        Q           E  S E.  Q.        Q    E  S E.  Q.      
-----------------------|------------------------------|-----------------------|
-----------------------|------------------------------|-----------------------|
-----------------------|------------------------------|-----------------------|
-----------------------|--9-----------9--9-9----------|-----------------------|
--5----5--5-5----------|--9-----------9--9-9----------|--9----9--9-9----------|
--5----5--5-5----------|------------------------------|--9----9--9-9----------|


  Q    E  S E.  Q.        Q    E  S E.  Q.        Q    E  S E.  Q.      
-----------------------|-----------------------|-----------------------|
-----------------------|-----------------------|-----------------------|
-----------------------|-----------------------|-----------------------|
-----------------------|--9----9--9-9----------|--5----5--5-5----------|
--9----9--9-9----------|--9----9--9-9----------|--5----5--5-5----------|
--9----9--9-9----------|-----------------------|-----------------------|


                          Bass Riff H                                          
  Q    E  S E.  Q.        Q           E  S E.  Q.        Q    E  S E.  Q.      
-----------------------|------------------------------|-----------------------|
-----------------------|------------------------------|-----------------------|
-----------------------|------------------------------|-----------------------|
-----------------------|--9-----------9--9-9----------|-----------------------|
--5----5--5-5----------|--9-----------9--9-9----------|--9----9--9-9----------|
--5----5--5-5----------|------------------------------|--9----9--9-9----------|


  Q    E  S E.  Q.        Q    E  S E.  Q.        Q    E  S E.  Q.      
-----------------------|-----------------------|-----------------------|
-----------------------|-----------------------|-----------------------|
-----------------------|-----------------------|-----------------------|
-----------------------|--9----9--9-9----------|--5----5--5-5----------|
--9----9--9-9----------|--9----9--9-9----------|--5----5--5-5----------|
--9----9--9-9----------|-----------------------|-----------------------|


                          Bass Riff I                                          
  Q    E  S E.  Q.        Q           E  S E.  Q.        Q    E  S E.  Q.      
-----------------------|------------------------------|-----------------------|
-----------------------|------------------------------|-----------------------|
-----------------------|------------------------------|-----------------------|
-----------------------|--9-----------9--9-9----------|-----------------------|
--5----5--5-5----------|--9-----------9--9-9----------|--9----9--9-9----------|
--5----5--5-5----------|------------------------------|--9----9--9-9----------|


  Q    E  S E.  Q.        Q    E  S E.  Q.        Q    E  S E.  Q.      
-----------------------|-----------------------|-----------------------|
-----------------------|-----------------------|-----------------------|
-----------------------|-----------------------|-----------------------|
-----------------------|--9----9--9-9----------|--5----5--5-5----------|
--9----9--9-9----------|--9----9--9-9----------|--5----5--5-5----------|
--9----9--9-9----------|-----------------------|-----------------------|


                          Bass Riff J                                          
  Q    E  S E.  Q.        Q           E  S E.  Q.        Q    E  S E.  Q.      
-----------------------|------------------------------|-----------------------|
-----------------------|------------------------------|-----------------------|
-----------------------|------------------------------|-----------------------|
-----------------------|--9-----------9--9-9----------|-----------------------|
--5----5--5-5----------|--9-----------9--9-9----------|--9----9--9-9----------|
--5----5--5-5----------|------------------------------|--9----9--9-9----------|


  Q    E  S E.  Q.        Q    E  S E.  Q.        Q    E  S E.  Q.      
-----------------------|-----------------------|-----------------------|
-----------------------|-----------------------|-----------------------|
-----------------------|-----------------------|-----------------------|
-----------------------|--9----9--9-9----------|--5----5--5-5----------|
--9----9--9-9----------|--9----9--9-9----------|--5----5--5-5----------|
--9----9--9-9----------|-----------------------|-----------------------|


                          Bass Riff K                                          
  Q    E  S E.  Q.        Q           E  S E.  Q.        Q    E  S E.  Q.      
-----------------------|------------------------------|-----------------------|
-----------------------|------------------------------|-----------------------|
-----------------------|------------------------------|-----------------------|
-----------------------|--9-----------9--9-9----------|-----------------------|
--5----5--5-5----------|--9-----------9--9-9----------|--9----9--9-9----------|
--5----5--5-5----------|------------------------------|--9----9--9-9----------|


  Q    E  S E.  Q.        Q    E  S E.  Q.        Q    E  S E.  Q.      
-----------------------|-----------------------|-----------------------|
-----------------------|-----------------------|-----------------------|
-----------------------|-----------------------|-----------------------|
-----------------------|--9----9--9-9----------|--5----5--5-5----------|
--9----9--9-9----------|--9----9--9-9----------|--5----5--5-5----------|
--9----9--9-9----------|-----------------------|-----------------------|


                          Bass Riff L/Outro                  
  Q    E  S E.  Q.        Q                 E  S E.  Q.      
-----------------------|------------------------------------|
-----------------------|------------------------------------|
-----------------------|------------------------------------|
-----------------------|--9-----------------9--9-9----------|
--5----5--5-5----------|--9-----------------9--9-9----------|
--5----5--5-5----------|------------------------------------|


  Q    E  S E.  Q.        Q    E  S E.  Q.        Q    E  S E.  Q.      
-----------------------|-----------------------|-----------------------|
-----------------------|-----------------------|-----------------------|
-----------------------|-----------------------|-----------------------|
-----------------------|-----------------------|--9----9--9-9----------|
--9----9--9-9----------|--9----9--9-9----------|--9----9--9-9----------|
--9----9--9-9----------|--9----9--9-9----------|-----------------------|


  Q    E  S E.  Q.        Q    E  S E.  Q.        Q    E  S E.  Q.       
-----------------------|-----------------------|-----------------------||
-----------------------|-----------------------|-----------------------||
-----------------------|-----------------------|-----------------------||
--5----5--5-5----------|-----------------------|--9----9--9-9----------||
--5----5--5-5----------|--5----5--5-5----------|--9----9--9-9----------||
-----------------------|--5----5--5-5----------|-----------------------||




Keyboard:
                        

           Intro                                                   
     S     H            H         H            Q     H.            
E||----|--27--------|---L--------26--------|---L----30------------|
B||----|--27--------|---L------------------|----------------------|
G||----|--29--------|---L---------L--------|---L-----L------------|
D||----|------------|----------------------|----------------------|
A||----|------------|----------------------|----------------------|
E||----|------------|----------------------|----------------------|


   Riff A                                                            
   H         H            H         H            H         H         
---L--------24--------|--25--------22--------|--23--------21--------|
------------24--------|--25--------22--------|--23--------25--------|
------------23--------|--24--------21--------|--23--------24--------|
----------------------|----------------------|----------------------|
----------------------|----------------------|----------------------|
----------------------|----------------------|----------------------|


                        Verso Riff 1                                
   W                    H            H            W                 
---L----------------|--22-----------20--------|--22----------------|
---L----------------|-------------------------|--------------------|
---L----------------|---5------------5--------|---5----------------|
--------------------|---5------------7--------|---5----------------|
--------------------|---6------------8--------|---6----------------|
--------------------|-------------------------|--------------------|


   H         H            W                    H         H         
--22--------20--------|--22----------------|--22--------20--------|
----------------------|--------------------|----------------------|
---5---------5--------|---5----------------|---5---------5--------|
---5---------7--------|---5----------------|---5---------7--------|
---6---------8--------|---6----------------|---6---------8--------|
----------------------|--------------------|----------------------|


   W                    H         H            S E.  H.            
--22----------------|--23--------25--------|---L------------------|
--------------------|----------------------|----------------------|
---5----------------|---3---------5--------|---7------------------|
---5----------------|---5---------7--------|---8------------------|
---6----------------|---6---------8--------|---8------------------|
--------------------|----------------------|----------------------|


   Coro                                                       
   W                    W                   W                 
--16----------------|---L----------------|-------------------|
---4----------------|---L----------------|--4----------------|
---5----------------|---L----------------|--5----------------|
---6----------------|---L----------------|--5----------------|
--------------------|--------------------|-------------------|
--------------------|--------------------|-------------------|


  W                   W                   W                   W                 
-------------------|-------------------|-------------------|-------------------|
-------------------|-------------------|--4----------------|--L----------------|
--5----------------|--L----------------|--5----------------|--L----------------|
--7----------------|--L----------------|--5----------------|--L----------------|
--8----------------|--L----------------|-------------------|-------------------|
-------------------|-------------------|-------------------|-------------------|


  Verso Riff 2                                                     
  H            H           H        H           H        H         
------------------------|--------------------|--------------------|
---------------4--------|-----------4--------|-----------4--------|
--7------------3--------|--7--------3--------|--7--------3--------|
--8------------5--------|--8--------5--------|--8--------5--------|
--8---------------------|--8-----------------|--8-----------------|
------------------------|--------------------|--------------------|


  Q    Q    H           Q    Q    H           Q    Q    H         
---------------------|---------------------|---------------------|
--4------------------|--4----6----4--------|--L------------------|
--5----3----3--------|--3----4----5--------|--L----5----3--------|
--5----3----5--------|--5----5----5--------|--L----7----5--------|
-------5----6--------|-------5-------------|-------8----5--------|
---------------------|---------------------|---------------------|


  Coro                                    Riff A            
  W                   W                   W                 
-------------------|-------------------|-------------------|
-------------------|-------------------|--4----------------|
--5----------------|--L----------------|--5----------------|
--7----------------|--L----------------|--5----------------|
--8----------------|--L----------------|-------------------|
-------------------|-------------------|-------------------|


  H         H            H         H            H         H         
-----------20--------|--22--------20--------|--22--------20--------|
--L------------------|----------------------|----------------------|
--L--------17--------|--26--------24--------|--26--------24--------|
--L------------------|----------------------|----------------------|
---------------------|----------------------|----------------------|
---------------------|----------------------|----------------------|


   Verso Riff 1                                                       
   H            H            W                    H         H         
--22-----------20--------|--22----------------|--22--------20--------|
-------------------------|--------------------|----------------------|
--26-----------24--------|--26----------------|--26--------24--------|
-------------------------|--------------------|----------------------|
-------------------------|--------------------|----------------------|
-------------------------|--------------------|----------------------|


   W                    H         H            W                 
--22----------------|--22--------20--------|--22----------------|
--------------------|----------------------|--------------------|
--26----------------|--26--------24--------|--26----------------|
--------------------|----------------------|--------------------|
--------------------|----------------------|--------------------|
--------------------|----------------------|--------------------|


                                                 Coro              
   H         H            S E.  H.               W                 
--23--------25--------|---L------------------|--16----------------|
----------------------|----------------------|---4----------------|
---3---------5--------|---7------------------|---5----------------|
---5---------7--------|---8------------------|---6----------------|
---6---------8--------|---8------------------|--------------------|
----------------------|----------------------|--------------------|


   W                   W                   W                 
---L----------------|-------------------|-------------------|
---L----------------|--4----------------|-------------------|
---L----------------|--5----------------|--5----------------|
---L----------------|--5----------------|--7----------------|
--------------------|-------------------|--8----------------|
--------------------|-------------------|-------------------|


  W                   W                   W                   W                 
-------------------|-------------------|-------------------|-------------------|
-------------------|--4----------------|--L----------------|-------------------|
--L----------------|--5----------------|--L----------------|--5----------------|
--L----------------|--5----------------|--L----------------|--7----------------|
--L----------------|-------------------|-------------------|--8----------------|
-------------------|-------------------|-------------------|-------------------|


                                                              Bass Riff A       
  W                   W                   W                   W                 
-------------------|-------------------|-------------------|-------------------|
-------------------|--4----------------|--L----------------|--3----------------|
--L----------------|--5----------------|--L----------------|--4----------------|
--L----------------|--5----------------|--L----------------|--4----------------|
--L----------------|-------------------|-------------------|-------------------|
-------------------|-------------------|-------------------|-------------------|


   W                   W                   W                 
--------------------|-------------------|-------------------|
--------------------|--5----------------|--3----------------|
---6----------------|--L----------------|--4----------------|
---8----------------|--L----------------|--4----------------|
--------------------|--7----------------|-------------------|
--14----------------|-------------------|-------------------|


                                          Bass Riff B/Coro  
  W                   W                   W                 
-------------------|-------------------|-------------------|
--3----------------|--3----------------|--3----------------|
--4----------------|--2----------------|--4----------------|
--5----------------|--0----------------|--4----------------|
--5----------------|-------------------|-------------------|
-------------------|-------------------|-------------------|


   W                   W                   W                 
--------------------|-------------------|-------------------|
--------------------|--5----------------|--3----------------|
---6----------------|--L----------------|--4----------------|
---8----------------|--L----------------|--4----------------|
--------------------|--7----------------|-------------------|
--14----------------|-------------------|-------------------|


                                          Bass Riff C       
  W                   W                   W                 
-------------------|-------------------|-------------------|
--3----------------|--3----------------|--3----------------|
--4----------------|--2----------------|--4----------------|
--5----------------|--0----------------|--4----------------|
--5----------------|-------------------|-------------------|
-------------------|-------------------|-------------------|


   W                   W                   W                 
--------------------|-------------------|-------------------|
--------------------|--5----------------|--3----------------|
---6----------------|--L----------------|--4----------------|
---8----------------|--L----------------|--4----------------|
--------------------|--7----------------|-------------------|
--14----------------|-------------------|-------------------|


                                          Bass Riff D       
  W                   W                   W                 
-------------------|-------------------|-------------------|
--3----------------|--3----------------|--3----------------|
--4----------------|--2----------------|--4----------------|
--5----------------|--0----------------|--4----------------|
--5----------------|-------------------|-------------------|
-------------------|-------------------|-------------------|


   W                   W                   W                 
--------------------|-------------------|-------------------|
--------------------|--5----------------|--3----------------|
---6----------------|--L----------------|--4----------------|
---8----------------|--L----------------|--4----------------|
--------------------|--7----------------|-------------------|
--14----------------|-------------------|-------------------|


                                          Bass Riff E       
  W                   W                   W                 
-------------------|-------------------|-------------------|
--3----------------|--3----------------|--3----------------|
--4----------------|--2----------------|--4----------------|
--5----------------|--0----------------|--4----------------|
--5----------------|-------------------|-------------------|
-------------------|-------------------|-------------------|


   W                   W                   W                 
--------------------|-------------------|-------------------|
--------------------|--5----------------|--3----------------|
---6----------------|--L----------------|--4----------------|
---8----------------|--L----------------|--4----------------|
--------------------|--7----------------|-------------------|
--14----------------|-------------------|-------------------|


                                          Bass Riff F       
  W                   W                   W                 
-------------------|-------------------|-------------------|
--3----------------|--3----------------|--3----------------|
--4----------------|--2----------------|--4----------------|
--5----------------|--0----------------|--4----------------|
--5----------------|-------------------|-------------------|
-------------------|-------------------|-------------------|


   W                   W                   W                 
--------------------|-------------------|-------------------|
--------------------|--5----------------|--3----------------|
---6----------------|--L----------------|--4----------------|
---8----------------|--L----------------|--4----------------|
--------------------|--7----------------|-------------------|
--14----------------|-------------------|-------------------|


                                          Bass Riff G       
  W                   W                   W                 
-------------------|-------------------|-------------------|
--3----------------|--3----------------|--3----------------|
--4----------------|--2----------------|--4----------------|
--5----------------|--0----------------|--4----------------|
--5----------------|-------------------|-------------------|
-------------------|-------------------|-------------------|


   W                   W                   W                 
--------------------|-------------------|-------------------|
--------------------|--5----------------|--3----------------|
---6----------------|--L----------------|--4----------------|
---8----------------|--L----------------|--4----------------|
--------------------|--7----------------|-------------------|
--14----------------|-------------------|-------------------|


                                          Bass Riff H       
  W                   W                   W                 
-------------------|-------------------|-------------------|
--3----------------|--3----------------|--3----------------|
--4----------------|--2----------------|--4----------------|
--5----------------|--0----------------|--4----------------|
--5----------------|-------------------|-------------------|
-------------------|-------------------|-------------------|


   W                   W                   W                 
--------------------|-------------------|-------------------|
--------------------|--5----------------|--3----------------|
---6----------------|--L----------------|--4----------------|
---8----------------|--L----------------|--4----------------|
--------------------|--7----------------|-------------------|
--14----------------|-------------------|-------------------|


                                          Bass Riff I       
  W                   W                   W                 
-------------------|-------------------|-------------------|
--3----------------|--3----------------|--3----------------|
--4----------------|--2----------------|--4----------------|
--5----------------|--0----------------|--4----------------|
--5----------------|-------------------|-------------------|
-------------------|-------------------|-------------------|


   W                   W                   W                 
--------------------|-------------------|-------------------|
--------------------|--5----------------|--3----------------|
---6----------------|--L----------------|--4----------------|
---8----------------|--L----------------|--4----------------|
--------------------|--7----------------|-------------------|
--14----------------|-------------------|-------------------|


                                          Bass Riff J       
  W                   W                   W                 
-------------------|-------------------|-------------------|
--3----------------|--3----------------|--3----------------|
--4----------------|--2----------------|--4----------------|
--5----------------|--0----------------|--4----------------|
--5----------------|-------------------|-------------------|
-------------------|-------------------|-------------------|


   W                   W                   W                 
--------------------|-------------------|-------------------|
--------------------|--5----------------|--3----------------|
---6----------------|--L----------------|--4----------------|
---8----------------|--L----------------|--4----------------|
--------------------|--7----------------|-------------------|
--14----------------|-------------------|-------------------|


                                          Bass Riff K       
  W                   W                   W                 
-------------------|-------------------|-------------------|
--3----------------|--3----------------|--3----------------|
--4----------------|--2----------------|--4----------------|
--5----------------|--0----------------|--4----------------|
--5----------------|-------------------|-------------------|
-------------------|-------------------|-------------------|


   W                   W                   W                 
--------------------|-------------------|-------------------|
--------------------|--5----------------|--3----------------|
---6----------------|--L----------------|--4----------------|
---8----------------|--L----------------|--4----------------|
--------------------|--7----------------|-------------------|
--14----------------|-------------------|-------------------|


                                          Bass Riff L/Outro  
  W                   W                   W                  
-------------------|-------------------|--------------------|
--3----------------|--3----------------|--3-----------------|
--4----------------|--2----------------|--4-----------------|
--5----------------|--0----------------|--4-----------------|
--5----------------|-------------------|--------------------|
-------------------|-------------------|--------------------|


   W                   W                   W                 
--------------------|-------------------|-------------------|
--------------------|--5----------------|--3----------------|
---6----------------|--L----------------|--4----------------|
---8----------------|--L----------------|--4----------------|
--------------------|--7----------------|-------------------|
--14----------------|-------------------|-------------------|


  W                   W                   W                  
-------------------|-------------------|-------------------||
--3----------------|--3----------------|--3----------------||
--4----------------|--2----------------|--4----------------||
--5----------------|--0----------------|--4----------------||
--5----------------|-------------------|-------------------||
-------------------|-------------------|-------------------||




Voice Melody:


          Intro                                               Riff A            
     S    H           W                   W                   W                 
E||----|-----------|-------------------|-------------------|-------------------|
B||----|-----------|-------------------|-------------------|-------------------|
G||----|-----------|-------------------|-------------------|-------------------|
D||----|-----------|-------------------|-------------------|-------------------|
A||----|-----------|-------------------|-------------------|-------------------|
E||----|-----------|-------------------|-------------------|-------------------|


                                          Verso Riff 1           
                                                       When the  
  W                   W                   H.           E    E    
-------------------|-------------------|---------------6--------|
-------------------|-------------------|--------------------8---|
-------------------|-------------------|------------------------|
-------------------|-------------------|------------------------|
-------------------|-------------------|------------------------|
-------------------|-------------------|------------------------|


  moon        is in the    Se venth   House       And  
  H        E  E  E  E      S  S     S H        E  E.   
--6--------L--8--6--5---|-----------------------------|
------------------------|--8--6-----L-8-----------6---|
------------------------|-----------------------------|
------------------------|-----------------------------|
------------------------|-----------------------------|
------------------------|-----------------------------|


  Ju pi ter      aligns with    Mars            Then  
  E  S  H        E.     E       H        Q.     E     
-----5--5--------------------|------------------5----|
--8--------------8------6----|--8--------------------|
-----------------------------|-----------------------|
-----------------------------|-----------------------|
-----------------------------|-----------------------|
-----------------------------|-----------------------|


  peace       will guide the    pla ne  ets         And  
  H        E  E    E.    S      S   E.  H        E  E    
--6--------L--8----6-----5---|--------------------------|
-----------------------------|--6---8---8-----------6---|
-----------------------------|--------------------------|
-----------------------------|--------------------------|
-----------------------------|--------------------------|
-----------------------------|--------------------------|


  lo       ove will steer the   stars        This is the    daw ning of the  
  H        E   E    E     T   T S        S S E    E  T   T  E.  E    E  E    
-----------5---5----5-----5---L-6-----|--L---6----8--6---L-10---8----6--5---|
--8-----------------------------------|-------------------------------------|
--------------------------------------|------3----5--3---L--7---5----3--2---|
--------------------------------------|-------------------------------------|
--------------------------------------|-------------------------------------|
--------------------------------------|-------------------------------------|


  Coro                                                                         
  Age  of A  qua ri us        Age  of A  qua ri uu         us              A   
  Q    E  E  E   S  Q    S    Q    E  E  E   S  S  Q       H.           E  E   
-----------------6--8------|-----------------6--8--L----|--8---------------6--|
--9----9--8--9-------------|--9----9--8--9--------------|---------------------|
-----------------3--5------|-----------------3--5--L----|--5---------------3--|
--6----6--5--6-------------|--6----6--5--6--------------|---------------------|
---------------------------|----------------------------|---------------------|
---------------------------|----------------------------|---------------------|


  qua  ri us!                               A      qua  ri  us!           
  E.   S  H.               H.           E   E      E.   E.  E   H         
--8---11-13------------|---L---------------11--|--13---11---8---L--------|
-----------------------|-----------------------|-------------------------|
--5----8-10------------|---L----------------8--|--10----8---5---L--------|
-----------------------|-----------------------|-------------------------|
-----------------------|-----------------------|-------------------------|
-----------------------|-----------------------|-------------------------|


                       Verso Riff 2                                  
                       Har          mo ny and un ders tan ding       
  H.           Q       S            S  S  S   E  S    E   E.   Q     
--L-----------------|--6------------8--6----------------------------|
--------------------|---------------------9---8--6----9---8---------|
--L-----------------|--3------------5--3----------------------------|
--------------------|---------------------6---5--3----6---5---------|
--------------------|-----------------------------------------------|
--------------------|-----------------------------------------------|


  Sym pa thy and trust a boun  ding    
  S   S  S   S   E     S Q     Q    S  
------6-------------------------------|
--9------9---8---6-------6~-----------|
------3----------------8-------8------|
--6------6---5---3-------3~-----------|
-----------------------6-------6------|
--------------------------------------|


  No more   false   hoods or de ri sions Gol den  
  S  T    T T     T S     E  S  E  E.    E   E    
--6--8----L-6-----L------------------------------|
--------------------9-----8--6--9--8-----9---8---|
-------------------------------------------------|
-------------------------------------------------|
-------------------------------------------------|
-------------------------------------------------|


  li ving   dreams of vi sions Mys tic  
  S  S    S E.     E  S  E.    E   E    
------------6--------------------------|
--9--8----L--------9--8--6-------------|
---------------------------------------|
-------------------------------5-------|
-----------------------------------8---|
---------------------------------------|


  crys tal re ve la tion And the   mind's       true li be ra  tion   A   
  E    E   E  S  E  E.   E   T   T S         E  E    E  S  E.  E.   S E   
------------------------------------------|---------------------------6--|
-------------------------6---------6------|--L-------8--6----------------|
-----------------------------8---L--------|-----8----------8---7---------|
--5--------6--5---------------------------|---------------------------8--|
-------8---------8--6---------------------|------------------------------|
------------------------------------------|------------------------------|


  Coro                                              Riff A                   
  qua   ri us!                               A      qua    ri  us!           
  E.    S  H.               H.           E   E      E.     E.  E   H         
--8----11-13------------|---L---------------11--|--13-----11---8---L--------|
------------------------|-----------------------|---------------------------|
--5-----8-10------------|---L----------------8--|--10------8---5---L--------|
------------------------|-----------------------|---------------------------|
------------------------|-----------------------|---------------------------|
------------------------|-----------------------|---------------------------|


                                           Verso Riff 1           
                                                        When the  
  H.           Q       W                   H.           E    E    
--L-----------------|-------------------|---------------6--------|
--------------------|-------------------|--------------------8---|
--L-----------------|-------------------|------------------------|
--------------------|-------------------|------------------------|
--------------------|-------------------|------------------------|
--------------------|-------------------|------------------------|


  moon (When the    moon) is  in  the    Se venth    House             And  
  Q    E     T   T  E.    E   E   E      S  S     S  S     Q    Q.     E    
--6----8-----6---L--------8---6---5--|-------------------------------------|
-------------------------------------|---8--6-----L--8-----L-----------6---|
-------------------12-----L---L---L--|---L--L-----L--L-----L----5----------|
-------------------------------------|-------------------------------------|
-------------------------------------|-------------------------------------|
-------------------------------------|-------------------------------------|


  Ju pi ter (Ju pi ter) aligns with    Mars            Then  
  E  S  E   E   S  E.   E.     E       H        Q.     E     
-----5--5-------5--5----L------L----|--L---------------5----|
--8---------8-----------8------6----|--8--------------------|
------------------------------------|------------------2----|
------------------------------------|-----------------------|
------------------------------------|-----------------------|
------------------------------------|-----------------------|


  peace       will guide the    pla ne  ets         And  
  H        E  E    E.    S      S   E.  H        E  E    
--6--------L--8----6-----5---|--------------------------|
-----------------------------|--6---8---8-----------6---|
--3--------L--5----3-----2---|--------------------------|
-----------------------------|--3---5---5-----------3---|
-----------------------------|--------------------------|
-----------------------------|--------------------------|


  lo       ove will steer the   stars        This is the    daw ning of the  
  H        E   E    E     T   T S        S S E    E  T   T  E.  E    E  E    
-----------5---5----5-----5---L-6-----|--L---6----8--6---L-10---8----6--5---|
--8-----------------------------------|-------------------------------------|
-----------2---2----2-----2---L-3-----|--L---3----5--3---L--7---5----3--2---|
--5-----------------------------------|-------------------------------------|
--------------------------------------|-------------------------------------|
--------------------------------------|-------------------------------------|


  Coro                                                                         
  Age  of A  qua ri us        Age  of A  qua ri uu         us              A   
  Q    E  E  E   S  Q    S    Q    E  E  E   S  S  Q       H.           E  E   
-----------------6--8------|-----------------6--8--L----|--8---------------6--|
--9----9--8--9-------------|--9----9--8--9--------------|---------------------|
-----------------3--5------|-----------------3--5--L----|--5---------------3--|
--6----6--5--6-------------|--6----6--5--6--------------|---------------------|
---------------------------|----------------------------|---------------------|
---------------------------|----------------------------|---------------------|


  qua  ri us!                               A      qua  ri  us!           
  E.   S  H.               H.           E   E      E.   E.  E   H         
--8---11-13------------|---L---------------11--|--13---11---8---L--------|
-----------------------|-----------------------|-------------------------|
--5----8-10------------|---L----------------8--|--10----8---5---L--------|
-----------------------|-----------------------|-------------------------|
-----------------------|-----------------------|-------------------------|
-----------------------|-----------------------|-------------------------|


                  A     qua  ri us!                               A   
  H.           E  E     E.   S  H.               H.           E   E   
--L---------------6--|--8---11-13------------|---L---------------11--|
---------------------|-----------------------|-----------------------|
--L---------------3--|--5----8-10------------|---L----------------8--|
---------------------|-----------------------|-----------------------|
---------------------|-----------------------|-----------------------|
---------------------|-----------------------|-----------------------|


                                                 Bass Riff A       
   qua  ri  us!                                                    
   E.   E.  E   H           H.           Q       W                 
--13---11---8---L--------|--L-----------------|-------------------|
-------------------------|--------------------|-------------------|
--10----8---5---L--------|--L-----------------|-------------------|
-------------------------|--------------------|-------------------|
-------------------------|--------------------|-------------------|
-------------------------|--------------------|-------------------|


  W                   W                   W                   W                 
-------------------|-------------------|-------------------|-------------------|
-------------------|-------------------|-------------------|-------------------|
-------------------|-------------------|-------------------|-------------------|
-------------------|-------------------|-------------------|-------------------|
-------------------|-------------------|-------------------|-------------------|
-------------------|-------------------|-------------------|-------------------|


                       Bass Riff B/Coro                                 
                       Let              the sun        shine,           
  W                    H.               E   E      E   H.           E   
-------------------|---------------------------|-----------------------|
-------------------|---------------------------|-----------------------|
-------------------|--23---------------23--23--|---L--21---------------|
-------------------|---------------------------|-----------------------|
-------------------|--21---------------21--21--|---L--19---------------|
-------------------|---------------------------|-----------------------|


   let           the sun        shine in,     the      sun           shine 
   H.            E   E      E   Q     Q.      Q        H.            Q     
------------------------|--------------------------|----------------------|
------------------------|--------------------------|----------------------|
--21------------23--21--|---L--19----19------21----|--23------------21----|
------------------------|--------------------------|----------------------|
--19------------21--19--|---L--17----17------19----|--21------------19----|
------------------------|--------------------------|----------------------|


                         Bass Riff C                                   
   in                    Let           the sun        shine,           
   H.           Q        H.            E   E      E   H.           E   
---------------------|--26------------26--26--|---L--24---------------|
---------------------|--15------------15--15--|---L--14---------------|
--19-----------------|--23------------23--23--|---L--21---------------|
---------------------|------------------------|-----------------------|
--17-----------------|--21------------21--21--|---L--19---------------|
---------------------|------------------------|-----------------------|


   let           the sun        shine in,     the      sun           shine 
   H.            E   E      E   Q     Q.      Q        H.            Q     
--24------------26--24--|---L--22----22------24----|--26------------24----|
--14------------15--14--|---L--12----12------14----|--15------------14----|
--21------------23--21--|---L--19----19------21----|--23------------21----|
------------------------|--------------------------|----------------------|
--19------------21--19--|------17----17------19----|--21------------19----|
------------------------|--------------------------|----------------------|


                         Bass Riff D                                   
   in                    Let           the sun        shine,           
   H.           Q        H.            E   E      E   H.           E   
--22-----------------|--26------------26--26--|---L--24---------------|
--12-----------------|--15------------15--15--|---L--14---------------|
--19-----------------|--23------------23--23--|---L--21---------------|
---------------------|------------------------|-----------------------|
--17-----------------|--21------------21--21--|---L--19---------------|
---------------------|------------------------|-----------------------|


   let           the sun        shine in,     the      sun           shine 
   H.            E   E      E   Q     Q.      Q        H.            Q     
--24------------26--24--|---L--22----22------24----|--26------------24----|
--14------------15--14--|---L--12----12------14----|--15------------14----|
--21------------23--21--|---L--19----19------21----|--23------------21----|
------------------------|--------------------------|----------------------|
--19------------21--19--|------17----17------19----|--21------------19----|
------------------------|--------------------------|----------------------|


                         Bass Riff E                                   
   in                    Let           the sun        shine,           
   H.           Q        H.            E   E      E   H.           E   
--22-----------------|--26------------26--26--|---L--24---------------|
--12-----------------|--15------------15--15--|---L--14---------------|
--19-----------------|--23------------23--23--|---L--21---------------|
---------------------|------------------------|-----------------------|
--17-----------------|--21------------21--21--|---L--19---------------|
---------------------|------------------------|-----------------------|


   let           the sun        shine in,     the      sun           shine 
   H.            E   E      E   Q     Q.      Q        H.            Q     
--24------------26--24--|---L--22----22------24----|--26------------24----|
--14------------15--14--|---L--12----12------14----|--15------------14----|
--21------------23--21--|---L--19----19------21----|--23------------21----|
------------------------|--------------------------|----------------------|
--19------------21--19--|------17----17------19----|--21------------19----|
------------------------|--------------------------|----------------------|


                         Bass Riff F                                   
   in                    Let           the sun        shine,           
   H.           Q        H.            E   E      E   H.           E   
--22-----------------|--26------------26--26--|---L--24---------------|
--12-----------------|--15------------15--15--|---L--14---------------|
--19-----------------|--23------------23--23--|---L--21---------------|
---------------------|------------------------|-----------------------|
--17-----------------|--21------------21--21--|---L--19---------------|
---------------------|------------------------|-----------------------|


   let           the sun        shine in,     the      sun           shine 
   H.            E   E      E   Q     Q.      Q        H.            Q     
--24------------26--24--|---L--22----22------24----|--26------------24----|
--14------------15--14--|---L--12----12------14----|--15------------14----|
--21------------23--21--|---L--19----19------21----|--23------------21----|
------------------------|--------------------------|----------------------|
--19------------21--19--|------17----17------19----|--21------------19----|
------------------------|--------------------------|----------------------|


                         Bass Riff G                                   
   in                    Let           the sun        shine,           
   H.           Q        H.            E   E      E   H.           E   
--22-----------------|--26------------26--26--|---L--24---------------|
--12-----------------|--15------------15--15--|---L--14---------------|
--19-----------------|--23------------23--23--|---L--21---------------|
---------------------|------------------------|-----------------------|
--17-----------------|--21------------21--21--|---L--19---------------|
---------------------|------------------------|-----------------------|


   let           the sun        shine in,     the      sun           shine 
   H.            E   E      E   Q     Q.      Q        H.            Q     
--24------------26--24--|---L--22----22------24----|--26------------24----|
--14------------15--14--|---L--12----12------14----|--15------------14----|
--21------------23--21--|---L--19----19------21----|--23------------21----|
------------------------|--------------------------|----------------------|
--19------------21--19--|------17----17------19----|--21------------19----|
------------------------|--------------------------|----------------------|


                         Bass Riff H                                   
   in                    Let           the sun        shine,           
   H.           Q        H.            E   E      E   H.           E   
--22-----------------|--26------------26--26--|---L--24---------------|
--12-----------------|--15------------15--15--|---L--14---------------|
--19-----------------|--23------------23--23--|---L--21---------------|
---------------------|------------------------|-----------------------|
--17-----------------|--21------------21--21--|---L--19---------------|
---------------------|------------------------|-----------------------|


   let           the sun        shine in,     the      sun           shine 
   H.            E   E      E   Q     Q.      Q        H.            Q     
--24------------26--24--|---L--22----22------24----|--26------------24----|
--14------------15--14--|---L--12----12------14----|--15------------14----|
--21------------23--21--|---L--19----19------21----|--23------------21----|
------------------------|--------------------------|----------------------|
--19------------21--19--|------17----17------19----|--21------------19----|
------------------------|--------------------------|----------------------|


                         Bass Riff I                                   
   in                    Let           the sun        shine,           
   H.           Q        H.            E   E      E   H.           E   
--22-----------------|--26------------26--26--|---L--24---------------|
--12-----------------|--15------------15--15--|---L--14---------------|
--19-----------------|--23------------23--23--|---L--21---------------|
---------------------|------------------------|-----------------------|
--17-----------------|--21------------21--21--|---L--19---------------|
---------------------|------------------------|-----------------------|


   let           the sun        shine in,     the      sun           shine 
   H.            E   E      E   Q     Q.      Q        H.            Q     
--24------------26--24--|---L--22----22------24----|--26------------24----|
--14------------15--14--|---L--12----12------14----|--15------------14----|
--21------------23--21--|---L--19----19------21----|--23------------21----|
------------------------|--------------------------|----------------------|
--19------------21--19--|------17----17------19----|--21------------19----|
------------------------|--------------------------|----------------------|


                         Bass Riff J                                   
   in                    Let           the sun        shine,           
   H.           Q        H.            E   E      E   H.           E   
--22-----------------|--26------------26--26--|---L--24---------------|
--12-----------------|--15------------15--15--|---L--14---------------|
--19-----------------|--23------------23--23--|---L--21---------------|
---------------------|------------------------|-----------------------|
--17-----------------|--21------------21--21--|---L--19---------------|
---------------------|------------------------|-----------------------|


   let           the sun        shine in,     the      sun           shine 
   H.            E   E      E   Q     Q.      Q        H.            Q     
--24------------26--24--|---L--22----22------24----|--26------------24----|
--14------------15--14--|---L--12----12------14----|--15------------14----|
--21------------23--21--|---L--19----19------21----|--23------------21----|
------------------------|--------------------------|----------------------|
--19------------21--19--|------17----17------19----|--21------------19----|
------------------------|--------------------------|----------------------|


                         Bass Riff K                                   
   in                    Let           the sun        shine,           
   H.           Q        H.            E   E      E   H.           E   
--22-----------------|--26------------26--26--|---L--24---------------|
--12-----------------|--15------------15--15--|---L--14---------------|
--19-----------------|--23------------23--23--|---L--21---------------|
---------------------|------------------------|-----------------------|
--17-----------------|--21------------21--21--|---L--19---------------|
---------------------|------------------------|-----------------------|


   let           the sun        shine in,     the      sun           shine 
   H.            E   E      E   Q     Q.      Q        H.            Q     
--24------------26--24--|---L--22----22------24----|--26------------24----|
--14------------15--14--|---L--12----12------14----|--15------------14----|
--21------------23--21--|---L--19----19------21----|--23------------21----|
------------------------|--------------------------|----------------------|
--19------------21--19--|------17----17------19----|--21------------19----|
------------------------|--------------------------|----------------------|


                         Bass Riff L/Outro                                 
   in                    Let               the sun        shine,           
   H.           Q        H.                E   E      E   H.           E   
--22-----------------|--26----------------26--26--|---L--24---------------|
--12-----------------|--15----------------15--15--|---L--14---------------|
--19-----------------|--23----------------23--23--|---L--21---------------|
---------------------|----------------------------|-----------------------|
--17-----------------|--21----------------21--21--|---L--19---------------|
---------------------|----------------------------|-----------------------|


   let           the sun        shine in,     the      sun           shine 
   H.            E   E      E   Q     Q.      Q        H.            Q     
--24------------26--24--|---L--22----22------24----|--26------------24----|
--14------------15--14--|---L--12----12------14----|--15------------14----|
--21------------23--21--|---L--19----19------21----|--23------------21----|
------------------------|--------------------------|----------------------|
--19------------21--19--|------17----17------19----|--21------------19----|
------------------------|--------------------------|----------------------|


   in                    Let           the sun  
   H.           Q        H.            E   E    
--22-----------------|--26------------26--26--||
--12-----------------|--15------------15--15--||
--19-----------------|--23------------23--23--||
---------------------|------------------------||
--17-----------------|--21------------21--21--||
---------------------|------------------------||




Duration Legend
---------------
W - whole
H - half
Q - quarter
E - 8th
S - 16th
T - 32nd
X - 64th
. - note dotted
|-n-|  - n-tuplets


Tablature Legend
----------------
L - tied note
x - dead note
g - grace note
(n) - ghost note
> - accentuded note
NH - natural harmonic
AH - artificial harmonic
TH - tapped harmonic
SH - semi harmonic
PH - pitch harmonic
h - hammer on
p - pull off
b - bend
br - bendRelease
pb - preBend
pbr - preBendRelease
brb - bendReleaseBend
\n/ - tremolo bar dip
\n - tremolo bar dive
-/n - tremolo bar Release up
/n\ - tremolo bar inverted dip
/n - tremolo bar return
-\n - tremolo bar Release down
S - shift slide
s - legato slide
/ -  slide into from below or out of upwards
\ -  slide into from above or out of downwards
~ - vibrato
W - wide vibrato
tr - trill
TP - tremolo picking
T - tapping
S - slap
P - pop
< - fade in
^ - brush up
v - brush down
Добавлено: 03.12.2015
Другие материалы по этой песне:
  • Аккорды и текст

Страница создана 31.10.2015
http://primanota.ru/the-5th-dimension/aquarius-let-sunshine-in-flesh-failures-chords.htm
Привет, Гость.
Предлагаем пройти революционный курс по гитаре.
Подарок от PrimaNota.Ru, забирай!