PrimaNota.ru - самый крупный в мире бесплатный архив песенных текстов, аккордов, табулатур и нот


The 1975 - Talk - таба, бас-таба, видео

Регистрация Запомнить меня
Войти через:  Facebook Google Twitter Vk Yandex Mail.ru

The 1975 - Talk - таба, бас-таба, видео

Печатать
Просмотров: 263
Уроки эстрадного вокала в Санкт-Петербурге
Авторы: George Daniel, Adam Hann, Matthew Healy, Ross MacDonald

-------------------------------------------------------------------------------
                             Talk! - The 1975
-------------------------------------------------------------------------------
Tabbed by: Rex326111
E-mail:bmbyrne26@comcast.net

Tuning:Standard

He plays 2 harmonic intervals throughout the entire song. The rhythm is a bit
challenging to get at first, but it repeats the whole song. I will probably 
not tab out the synth. 

Each interval is played in a staccato fashion 
with a tiny bit of delay as The 1975 usually does.

Intro:
e|---------------------------------------------------------------------------|
B|----17---------17-----------17---------17----------------------------------|
G|----16---------16-----------16---------16----------------------------------|
D|---------------------------------------------------------------------------|
A|---------------------------------------------------------------------------|
E|---------------------------------------------------------------------------|

Basically the rest of the song:
e|---------------------------------------------------------------------------|
B|---17---16-17-------17---16-17------17---16-17-----------------------------|
G|---16---16-16-------16---16-16------16---16-16-----------------------------|
D|---------------------------------------------------------------------------|
A|---------------------------------------------------------------------------|
E|---------------------------------------------------------------------------|

That's it for the guitar. There is a lot of synth in the background as per usual, 
but that would be significantly harder to tab out. 

************************************

| /   slide up
| \   slide down
| h   hammer-on
| p   pull-off
| ~   vibrato
| +   harmonic
| x   Mute note
| b   Bend
| pb  Pre-bend
| br  Bend release
| pbr Pre-bend release
| brb Bend release bend

************************************
Добавлено: 25.04.2015
Другие материалы по этой песне:
  • Аккорды и текст

Страница создана 23.08.2013
http://primanota.ru/the-1975/talk-chords.htm
Привет, Гость.
Предлагаем пройти революционный курс по гитаре.
Подарок от PrimaNota.Ru, забирай!