PrimaNota.ru - самый крупный в мире бесплатный архив песенных текстов, аккордов, табулатур и нот


The 1975 - Love Me - таба, бас-таба, видео

Регистрация Запомнить меня
Войти через:  Facebook Google Twitter Vk Yandex Mail.ru

The 1975 - Love Me - таба, бас-таба, видео

Печатать
Просмотров: 226
Уроки эстрадного вокала в Санкт-Петербурге
Авторы: George Daniel, Adam Hann, Matthew Healy, Ross MacDonald

THE 1975 // L O V E M E

Both use the chorus pedal effect (can be played without), this main riff is majority of the song.
The guitar solo hasn't been worked out yet.

*AFTER THE INTRO COMBINE THESE TWO RIFFS TOGETHER!
*ADAM HANN IS A BEAST ON THIS TRACK

Intro - Guitar 1:

E|---------------------|
B|--15--15--15--16--15-|
G|--13--13--13--14--13-|
D|---------------------|
A|---------------------|
E|---------------------|


Intro - Guitar 2:


E|-------------------------|
B|--15--15--15--15--16--15-|
G|--13--13--13--13--14--13-|
D|-------------------------|
A|-------------------------|
E|-------------------------|
Добавлено: 06.05.2016
Другие материалы по этой песне:
  • Аккорды и текст

Страница создана 19.04.2016
http://primanota.ru/the-1975/love-me-chords.htm
Привет, Гость.
Предлагаем пройти революционный курс по гитаре.
Подарок от PrimaNota.Ru, забирай!