PrimaNota.ru - самый крупный в мире бесплатный архив песенных текстов, аккордов, табулатур и нот


That Petrol Emotion - Chester Brunette - таба, видео

Регистрация Запомнить меня
Войти через:  Facebook Google Twitter Vk Yandex Mail.ru

That Petrol Emotion - Chester Brunette - таба, видео

Печатать
Просмотров: 111
Уроки эстрадного вокала в Санкт-Петербурге
-------------------------------------------------------------------------------
                   Chester Brunette - That Petrol Emotion
-------------------------------------------------------------------------------
Tabbed by:  Maya L T

Tuning:  Standard

Here's the opening riff which is played through most of the song.

e|---------------------------------------------------------------------------|
B|-------------------------------6-------------------------------8-----------|
G|-------7---7-----------5---7-----------7---7-----------5---7---------------|
D|---------------5---7---------------------------5---7-----------------------|
A|---5-------------------------------5---------------------------------------|
E|---------------------------------------------------------------------------|

(If you want to play the song in Chords its just Am Em over and over again.)


     Am                  Em          Am                  Em   
e|---------------------------------------------------------------------------|
B|-------------------------------6-------------------------------8-----------|
G|-------7---7-----------5---7-----------7---7-----------5---7---------------|
D|---------------5---7---------------------------5---7-----------------------|
A|---5-------------------------------5---------------------------------------|
E|---------------------------------------------------------------------------|



That's all, Enjoy!
Добавлено: 14.08.2015
Другие материалы по этой песне:
  • Аккорды и текст

Страница создана 14.08.2015
http://primanota.ru/that-petrol-emotion/chester-brunette-chords.htm
Привет, Гость.
Предлагаем пройти революционный курс по гитаре.
Подарок от PrimaNota.Ru, забирай!