PrimaNota.ru - самый крупный в мире бесплатный архив песенных текстов, аккордов, табулатур и нот


That Handsome Devil - Stockholm Syndrome - бас-таба, видео

Регистрация Запомнить меня
Войти через:  Facebook Google Twitter Vk Yandex Mail.ru

That Handsome Devil - Stockholm Syndrome - бас-таба, видео

Печатать
Просмотров: 89
Album: Enlightenment's For Suckers


Riff A
|-------------------------------------|
|-----1-------1h4-----1h3-1-----------|
|-1-3-----3-3-------3-------3-1-1-3---|
|-------------------------------------|

Riff B
|-3h5--------| x4
|------------|
|-----3--3---|
|------------|

Riff C
|-----5h8-------5h7-------6-----------|
|---5-----5---4---------3---3---------|
|-3---------3---------3-------1-1-3---|
|-------------------------------------|

Riff B x4

Riff A

Riff B x4

Riff C

Riff B x4

Riff D
|-8---5--3----------------------|
|----------5-3------------------|
|---------------3-----1--3--3---|
|------------------3------------|

Riff A

Riff B x4

Riff C

Riff B1
|-3h5--------3h5----------3h5--------3h5--------|
|-----------------------5-----------------------|
|-----3--3-------3---3--------3--3-------3---3--|
|-----------------------------------------------|

Riff D1
|-8---5--3----------------------|
|----------5-3------------------|
|---------------3-----1--3------|
|------------------3------------|

Riff A

Riff B x4

Riff C (No bass)

Riff B x4

Riff D

Riff A

Riff B x4

Riff C

Riff B1 x4

Riff D2
|-8---5--3-------------------------|
|----------5-3---------------------|
|---------------3-----1--3--3-/15\-|
|------------------3---------------|

Riff E
|---------------------------------| x5
|---------------------------------|
|-----3------6------5----4----4---|
|-4\3----3/6----6\4---4-----4-----|

Riff A

Riff B x4

Riff C

Riff B1 x4

Riff D


h=Hammer on
p=Pull off
/=Slide up
\Slide down
Добавлено: 20.08.2013
Другие материалы по этой песне:
  • Аккорды и текст

Страница создана 20.08.2013
http://primanota.ru/that-handsome-devil/stockholm-syndrome-chords.htm
Привет, Гость.
Предлагаем пройти революционный курс по гитаре.
Подарок от PrimaNota.Ru, забирай!