PrimaNota.ru - самый крупный в мире бесплатный архив песенных текстов, аккордов, табулатур и нот


That Handsome Devil - Reagans Kids - таба, видео

Регистрация Запомнить меня
Войти через:  Facebook Google Twitter Vk Yandex Mail.ru

That Handsome Devil - Reagans Kids - таба, видео

Печатать
Просмотров: 74
Album: A City Dressed In Dynamite


Tuning: Standard


Intro:

Guitar 1
|----------0-----------------------------------0--------------------------|
|----1--0-----1--------------------------1--0-----1-----------------------|
|----------------2-----2--------2--------------------2-----2--------------|
|-------------------3-----3--2-----2--------------------3-----3-----------|
|-0-----------------------------------0-----------------------------------|
|-------------------------------------------------------------------------|


Verse A:

Guitar 1
|----------0--------------------------| X8
|----1--0-----1-----------------------|
|----------------2-----2--------2-----|
|-------------------3-----3--2-----2--|
|-0-----------------------------------|
|-------------------------------------|
  .  .  .  .  .  .  .  .  .  .  .  .

Guitar 2 *:(Played before Chorus starts)
|*----*|
|------|
|------|
|------|
|-/12\-|
|*----*|


Chorus:

Guitar 2
|-------------------------------------------------------------------------|
|-------------------------------------------------------------------------|
|--------------------3----------------------------------------------------|
|------------2--1-------------------2---------------2/5----4----3----2----|
|-0----0--3---------------2--2-----------0----0--3------------------------|
|------------------------------3------------------------------------------|


Guitar 3
|-------------------------------------------------------------------------|
|-------------------------------------------------------------------------|
|-------------------------------------------------------------------------|
|------------2--1-------------------2---------------2-5--5-4--4-3----2----|
|-------------------------------------------------------------------------|
|------------------------------3------------------------------------------|


Verse B:

Guitar 1
|----------0--------------------------| X8
|----1--0-----1-----------------------|
|----------------2-----2--------2-----|
|-------------------3-----3--2-----2--|
|-0-----------------------------------|
|-------------------------------------| 
  .  .  .  .  .  .  .  .  .  .  .  .

Guitar 2
|*-----------------------------*| *:(Played when Guitar 1 
|-------------------------------|    loops for third time)
|-------------------------------|
|-6----5-----------4------------|
|-------------------------------|
|*-----------------------------*|


|*----*| *:(Played before Chorus starts)
|------|
|------|
|------|
|-/12\-|
|*----*|


Chorus


Verse C:

Guitar 1
|*---------0--------------------------| X3
|----1--0-----1-----------------------|
|----------------2-----2--------2-----|
|-------------------3-----3--2-----2--|
|-0-----------------------------------|
|*------------------------------------|
  .  .  .  .  .  .  .  .  .  .  .  .   

|----------0-------------------------*|
|----1--0-----1-----1--0--------------|
|----------------2--------2-----2-----|
|----------------------------2-----2--|
|-0-----------------------------------|
|------------------------------------*| 
  .  .  .  .  .  .  .  .  .  .  .  .    *:(Played four times)

Guitar 3
|---------------------------------------------------|
|---------------------------------------------------|
|---------------------------------------------------|
|----2--2-------4-----------3-----------2-----------|
|---------------------------------------------------|
|---------------------------------------------------|


|----------------------------------------------------------------|
|-------5-----------------5-----------7------6---------6--5------|
|----5-----5-----5-----5-----5-----5--7------5-------------------|
|-7-----------7-----6-----------6-----7------3------7------------|
|----------------------------------------------------------------|
|----------------------------------------------------------------|


|---------------------------------------------------------5------|
|----------5--------------5-----------7------6------------5------|
|-------5--------5-----5-----5--------7------5---------5---------|
|----7--------7-----6-----------9--7--7------3------7------------|
|----------------------------------------------------------------|
|----------------------------------------------------------------|


|---------------------------------------------------------5------|
|----------5--------------5-----------7---7--6---------6--5------|
|-------5-----5--------5-----5--------7--------------------------|
|----7-----------7--6-----------9--7--7-------------7------------|
|----------------------------------------------------------------|
|----------------------------------------------------------------|


Outro:

Guitar 1
|----------0--------------------------|
|----1--0-----1-----------------------|
|----------------2-----2--------2-----|
|-------------------3-----3--2-----2--|
|-0-----------------------------------|
|-------------------------------------|
  .  .  .  .  .  .  .  .  .  .  .  .

Repeat until fade out...



. = Palm mute
/ = Slide up
\ = Slide down
* = See note...
Добавлено: 11.06.2013
Вам также может быть интересно:
Другие материалы по этой песне:
  • Аккорды и текст

Страница создана 11.06.2013
http://primanota.ru/that-handsome-devil/reagans-kids-chords.htm
Привет, Гость.
Предлагаем пройти революционный курс по гитаре.
Подарок от PrimaNota.Ru, забирай!