PrimaNota.ru - самый крупный в мире бесплатный архив песенных текстов, аккордов, табулатур и нот


Tharp Jeremy - My Road - таба, видео

Регистрация Запомнить меня
Войти через:  Facebook Google Twitter Vk Yandex Mail.ru

Tharp Jeremy - My Road - таба, видео

Печатать
Просмотров: 82
My Road by Jeremy Tharp

The 4th track on It all comes out

Tabbed by: Phil Taylor Jr. a.k.a The Great Philipino

It took me awhile to figure out the solo to this song,
probably a good hour of sitting there listening to it
over and over and trying to play it. I know it's not
100% correct but I do know that it is darn near close.

The strumming is not given becuase I think that would
be a waste of my tabbing time...listen to the cd.

And on a final note, I couldn't fit all of the solo on
one line of course, so I broke it into what I consider
the sections of the solo.

Chords used:

  Em      A?      C       D
e|-0-|  e|-0-|  e|-0-|  e|-2-|
B|-0-|  B|-0-|  B|-1-|  B|-3-|
G|-0-|  G|-2-|  G|-0-|  G|-2-|
D|-2-|  D|-2-|  D|-2-|  D|-0-|
A|-2-|  A|-0-|  A|-3-|  A|-0-|
E|-0-|  E|-X-|  E|-0-|  E|-X-|

Intro:

  Em
e|------------------------------------0-|
B|-------0----------0-------0---------0-|
G|-----0--0-------0-------0--0--------0-|
D|---2--2--2----2--2----2--2--2---2---2-|
A|--2-2-----2--2-2-----2-2-----2-2-2--2-|
E|-0----------0-------0---------0---0-0-|

  A?                   Em
e|----------------0--------------------0-|
B|-----0-----------0-------0--0--------0-|
G|---2--2-------2---2------0--0--------0-|
D|--2-2--2-----2-2---2---2--2--2---2---2-|
A|-0------0-0-0-------0-2-2-----2-2-2--2-|
E|---------------------0---------0---0-0-|

Verse:

Em      A?

Chorus:

C      D      Em

Solo background:

Em      C

Solo:

e|-----------------------------------------|
B|---------------------------14------------|
G|-14^--12-14^--12----12-14^----14^--12----|
D|-----------------14-------------------14-|
A|-----------------------------------------|
E|-----------------------------------------|

e|-------------------------|
B|-------------------------|
G|-------------------------|
D|-------------------------|
A|-14h15-14----------------|
E|-----------14-15^--14-12-|

e|-----------------------------------|
B|-----------------------------------|
G|----11-12-----11-12-12-14-11^---12-|
D|-14--------14----------------14----|
A|-----------------------------------|
E|-----------------------------------|

e|-----------------------------|
B|-----------------------------|
G|-12-10-9---------------------|
D|---------12-10-9-9h10p9-10-9-|
A|-----------------------------|
E|-----------------------------|

e|----------------------------|
B|------------------------12^-|
G|--------------11h12--14-----|
D|-----------14---------------|
A|-14h15-15^------------------|
E|----------------------------|

Ending:

C      D        Em
              e|------4-|
              B|-----0--|
              G|----0---|
              D|---2----|
              A|--2-----|
              E|-0------|

And that's it. I hope that it's pretty close to the
real solo.

Song order:

Intro
Verse
Chorus
Intro
Verse
Chorus
Solo background / Solo
Intro
Verse
Chorus
Ending


		
_______________________________
     
Добавлено: 03.11.2013
Вам также может быть интересно:
Другие материалы по этой песне:
  • Аккорды и текст

Страница создана 03.11.2013
http://primanota.ru/tharp-jeremy/my-road-chords.htm
Привет, Гость.
Предлагаем пройти революционный курс по гитаре.
Подарок от PrimaNota.Ru, забирай!