PrimaNota.ru - самый крупный в мире бесплатный архив песенных текстов, аккордов, табулатур и нот


Tharp Jeremy - I Suppose - таба, видео

Регистрация Запомнить меня
Войти через:  Facebook Google Twitter Vk Yandex Mail.ru

Tharp Jeremy - I Suppose - таба, видео

Печатать
Просмотров: 81
Уроки эстрадного вокала в Санкт-Петербурге
I suppose by Jeremy Tharp

The eleventh track on It all comes out

Tabbed by Phil Taylor Jr. a.k.a The Great Philipino

I sat down with my guitar and thought, what I could
use to play a nice soft song. Well...hmm...I thought,
and put my hands down on the first chord of this song.
Then I proceeded to pick the first three notes of this
song. Then I proceeded to say...WHOA!

A figured out the intro and verse, and then a few days
later decided to learn the whole thing and put it on
here. Since I suck, I don't know the solo, but here is
everything else.

Chords used: 

   e  d  c  E  B  A
e|-0--0--0--0--2--0-|
B|-0--0--0--0--4--2-|
G|-8--6--4--3--4--2-|
D|-9--7--5--2--4--2-|
A|-7--5--3--2--2--0-|
E|----------0-------|

Intro:

   e   d   c   d
e|-----------------|
B|-----------------|
G|-----------------|Play
D|---8---6---4---6-|Twice
A|--9---7---5---7--|
E|-7---5---3---5---|

   e        d       c        d                d
e|-----0--------0-------0--------0---|      |-0-|
B|-----------------------------------|      |-0-|
G|-----------------------------------|Play  |-6-|
D|---8---8----6---6---4---4----6---6-|Twice |-7-|
A|--9-9-9-9--7-7-7---5-5-5-5--7-7-7--|      |-5-|
E|-7--------5-------3--------5-------|      |---|

Verse: (Strum these)

e d c d

Chorus:

E B A


		
__________________________________
     
Добавлено: 08.07.2013
Вам также может быть интересно:
Другие материалы по этой песне:
  • Аккорды и текст

Страница создана 08.07.2013
http://primanota.ru/tharp-jeremy/i-suppose-chords.htm
Привет, Гость.
Предлагаем пройти революционный курс по гитаре.
Подарок от PrimaNota.Ru, забирай!