PrimaNota.ru - самый крупный в мире бесплатный архив песенных текстов, аккордов, табулатур и нот


Thank You Scientist - My Famed Disappearing Act - таба, видео

Регистрация Запомнить меня
Войти через:  Facebook Google Twitter Vk Yandex Mail.ru

Thank You Scientist - My Famed Disappearing Act - таба, видео

Печатать
Просмотров: 130
Уроки эстрадного вокала в Санкт-Петербурге
Авторы: Thank You Scientist

-------------------------------13-----------------------------------------------13-------------|
----------------------------11----11-----------------------------------------11----11----------|
--------8-10---------------------------------------------8-10----------------------------------|
-----12------10-------12-13----------13-12------------12------10-------12-13----------13-12----|
--10---------------10----------------------10------10---------------10----------------------10-|
8----------------8-------------------------------8----------------8----------------------------|

-----------------------------------------------------------------20----------------20- --------|
------------16-20-------------16-20---------------------------19----------------19---- -15-16--|
---------17----------------17---------------------------17-20-------------17-20-------|--------|
------19----------------19----------------17-20------20----------------20------------- --------|
15-20-------------15-20-------------17-20---------18----------------18---------------- --------|
-------------------------------------------------------------------------------------- --------|

---------------------15------------------------------------------------------------------------|
---------------13-16---16-13-------------------------------------------------------------------|
---------12-15---------------12----------------------------------------------------------------|
---13-15------------------------15-13--------12------------------------------------------------|
15--------------------------------------14-----------------------------------------------------|
-----------------------------------------------------------------------------------------------|
Добавлено: 16.08.2013
Другие материалы по этой песне:

Страница создана 17.07.2013
http://primanota.ru/thank-you-scientist/my-famed-disappearing-act-chords.htm
Привет, Гость.
Предлагаем пройти революционный курс по гитаре.
Подарок от PrimaNota.Ru, забирай!