PrimaNota.ru - самый крупный в мире бесплатный архив песенных текстов, аккордов, табулатур и нот


Texas - Dont Help Me Through - аккорды и текст, видео

Регистрация Запомнить меня
Войти через:  Facebook Google Twitter Vk Yandex Mail.ru

Texas - Dont Help Me Through - аккорды и текст, видео

Печатать
Просмотров: 153
Dont Help Me Through
Texas
Don't Help Me Through (Texas)
=============================
 

Intro (and also verse):
 
        D             G            A             D
e|-----0-------|-----0-------|-----0-------|-----0-------|
B|---3---3-3---|---3---3-3---|---3---3-3---|---3---3-3---|
G|-----------2-|-0---------0-|-0---------0-|-------------|
D|-0-----------|-------------|-------------|-4---------4-|
A|-------------|-------------|-------------|-------------|
E|-------------|-------------|-------------|-------------|
 

        D             G            A             D
e|-----0-------|-----0-------|-----0-------|-----0-------|
B|---3---3-3---|---3---3-3---|---3---3-3---|---3---3-3---|
G|-----------2-|-0---------0-|-0---------0-|-------------|
D|-0-----------|-------------|-------------|-4---------4-|
A|-------------|-------------|-------------|-------------|
E|-------------|-------------|-------------|-------------|
 

Verse 1:
 
   D
I feel...
        G                 A            D
I can't use them, I can't use them any more
      D                                G
I am waiting for someone to come to untie them
       A                  D
Yes untie me, just like before
 

Pre Chorus 1:
 
G   F#m             Em
      You're on your high just now
G   F#m                        A
      I can't ride on it, that I won't allow
 

Chorus 1:
 
                    G
G don't help me through
 
I've...
                                D
Yeah is there any love in your heart
                 G
Don't help me through
 
I've...
                                D
Yeah is there any love in your heart
      A
Your heart
 

Verse 2:
 
  D
Playing...
            G
I know I'm ready
           A             D
I want to make you understand
    D
The answers...
           G
Can't you see that
           A
Can't you feel it
                   D
Then let go of my hand
 

Pre Chorus 2:
 
G        F#m              Em
      You always give what I can take
G              F#m             A
      That I know it has been my mistake
 

Chorus 2:
 
                    G
G don't help me through
 
I've...
                                D
Yeah is there any love in your heart
                 G
Don't help me through
 
I've...
                                D
Yeah is there any love in your heart
      A
Your heart
 

(Bridge)
 

Pre Chorus 3:
 
G   F#m             Em
      You're on your high just now
G           F#m                    A
      I can't ride on it, that I won't allow
 

Chorus 3:
 
                    G
G don't help me through
 
I've...
                                D
Yeah is there any love in your heart
                 G
Don't help me through
 
I've...
                                D
Yeah is there any love in your heart
      A
Your heart
 
(repeat)
 
 
 
-----------------------------
Michael Fiedler
fiedler-michael87@t-online.de
     
Добавлено: 18.08.2013
Другие материалы по этой песне:
  • Аккорды и текст

Страница создана 18.08.2013
http://primanota.ru/texas/dont-help-me-through-chords.htm
Привет, Гость.
Предлагаем пройти революционный курс по гитаре.
Подарок от PrimaNota.Ru, забирай!