PrimaNota.ru - самый крупный в мире бесплатный архив песенных текстов, аккордов, табулатур и нот


Texas In July - May - таба, видео

Регистрация Запомнить меня
Войти через:  Facebook Google Twitter Vk Yandex Mail.ru

Texas In July - May - таба, видео

Печатать
Просмотров: 151
Уроки эстрадного вокала в Санкт-Петербурге
Just the first few bars of this song. I'm not that good at learning by ear, but I hope 
that this tab is a help for those people who want to tab the whole song. This YouTube 
may also be a good help: http://www.youtube.com/watch?v=00PEWmveQKQ
- Adrian
                                      

     E  E  E  E  E  E  E  E     E  E  E  S S E  E  E  E   
E||--------------0-----------|-----------0-2-3--2--------|
B||--------3--------3--------|---------------------3-----|
G||-----0-----0--------0-----|-----0--L---------------0--|
D||--2--------------------2--|--L------------------------|
A||--------------------------|---------------------------|
E||--------------------------|---------------------------|


                                 Cadd9                                        
  E  E  E  E  E  E  E  S  S      W                   E  E  E  E  E  E  E  E   
--------3--2----------------|--3g0----------------|--------------0--L--------|
--------------3-------------|----3----------------|--------3--------3--------|
----------------------------|----0----------------|-----0-----0--------0-----|
----------------------------|----2----------------|--2--------------------2--|
--2--L--L--L--L--2--L--Ls-3-|----3----------------|--------------------------|
----------------------------|---------------------|--------------------------|


                                                             Cadd9             
  E  E  E  S S E  E  E  E     E  E  E  E  E  E  E  S  S      W                 
-----0--L--0-2-3--2--------|--------3--2----------------|--3g0----------------|
---------------------3-----|--------------3-------------|----3----------------|
------------------------0--|----------------------------|----0----------------|
--L------------------------|----------------------------|----2----------------|
---------------------------|--2--L--L--L--L--2--L--Ls-3-|----3----------------|
---------------------------|----------------------------|---------------------|


                                                     v   
  E  E  E  E  E  E  E  E     E  E  E  E  S  S  E  E  E   
--------------0-----------|--------3-----------------0--|
--------3--------3--------|--------------3s-5s-3-----3--|
-----0-----0--------0-----|-----0--L--0--------------0--|
--2--------------------2--|--L-----------------------2--|
--------------------------|-----------------------2--3--|
--------------------------|-----------------------------|


  ^  ^  ^                   
  E  E  E  E  E  E  E  E    
--------------0-----------||
--L--3--L--------3--------||
--L--0--L-----------0-----||
--L--2--L--2-----------2--||
--L-----------------------||
--------------------------||
Добавлено: 15.03.2012
Другие материалы по этой песне:

Страница создана 15.03.2012
http://primanota.ru/texas-in-july/may-chords.htm
Привет, Гость.
Предлагаем пройти революционный курс по гитаре.
Подарок от PrimaNota.Ru, забирай!