PrimaNota.ru - самый крупный в мире бесплатный архив песенных текстов, аккордов, табулатур и нот


Texas In July - Hook Line And Sinner - таба, бас-таба, видео

Регистрация Запомнить меня
Войти через:  Facebook Google Twitter Vk Yandex Mail.ru

Texas In July - Hook Line And Sinner - таба, бас-таба, видео

Печатать
Просмотров: 193
By: Brian Benzinger
Tuning: Drop C

Hi, I tabbed this song a few months ago by ear after listening to these guys live and 
really impressed. I've actually tabbed most of their other songs, too, but they're not complete.
A lot of this song is just chugging away open strings, so I tried to make it as exact as 
to help with the timing.
Check this, it's probably about 98% correct.

//Edit 7-7-2010\\ Read your suggestions, fixed minor errors and completely rewrote 
(J) - should now be near perfect

 A)Intro
|----------------------------|
|----------------------------|
|----------------------------|
|------------------------<5>-|
|----------------------------|
|-3p0-0---0-0-3p0-0----------|

|-------------------------------------------------------|
|-------------------------------------------------------|
|--------------------------------------------------7--7-|
|---------------------0--0-------------------------x--x-|
|---------------------0--0-------------------------5--5-|
|-3p0-00--00-3p0-00---0--0----3p0-00--00-3p0-00----0--0-|

|------------------------------------------------------------|
|------------------------------------------------------------|
|------------------------------------------------------------|
|---------------------0--0-----------------------------------|
|---------------------0--0-----------------------------------|
|-3p0-00--00-3p0-00---0--0----3p0-00--00-3p0-00---pick-slide-|

                                                            ===============]
B)Verse                                                        1,2,3 Ending
|--------------------------------------------------------|-----------------|
|--------------------------------------------------------|-----------------|
|o-------------------------------------------------------|----------------o|
|o-------------------------------------------------------|----2-3-5-------o|
|--------------------------------------------------------|----3-5-3--------|
|-3p0-00--00-3p0-00---00-3p0-0--000000-3p0-00--00-3p0-00-|-00-------000000-|

 ===========]
  4th Ending
|-----------|
|-----------|
|-----------|
|----2-3-5~-|
|----3-5-3~-|
|-00--------|

C)Sweetness
|---------------------------------|-----------------------------------|
|---------------------------------|-----------------------------------|
|o--------------------------------|-----------------------------------|
|o-0---7--------------------------|-8---10--8---8-7----7--------------|
|--0------8---8-7---7-------------|-8---------------10---10-8-7-8-10--|
|--0-0--0--0-----10---10-8-7-8-10-|-8-8---8--8------------------------|

|------------------------------|--------------------------------|
|------------------------------|--------------------------------|
|------------------------------|-------------------------------o|4x
|--5---8--7--7-5-8-7-5---7-----|-3--3-3--3-3-3---7--7-7--7-7-7-o|
|--5-------------------8---8-7-|-3--3-3--3-3-3---7--7-7--7-7-7--|
|--5-5--5--5-------------------|-3--3-3--3-3-3---7--7-7--7-7-7--|

D)Transition 1
|---------|
|---------|
|---------|
|-00-0-00-|
|-00-0-00-|
|-00-0-00-|

                                           ===========] ====================]
E)Breakdown 1                               1,3 Ending            2nd Ending
|-----------------------------------------|-----------||--------------------|
|-----------------------------------------|-----------||-Skip-last-eight-0s-|
|o----------------------------------------|----------o||-and-jump-directly--|
|o-00-0-00----0000--0000--00-0-00--000-000|-00000000-o||-back-to-E----------|
|--00-0-00----0000--0000--00-0-00--000-000|-00000000--||--------------------|
|--00-0-00----0000--0000--00-0-00--000-000|-00000000--||--------------------|

                                          ==========] ==========] ==========]
                                          4th Ending  5th Ending  6th Ending
                                          |---------||----------||----------|
                                          |-13^15---||----------||----------|
                                          |---------||----------||----------|
                                          |---------||--0-0-0-0-||-000000-5-|
                                          |---------||--0-0-0-0-||-000000-5-|
                                          |---------||--0-0-0-0-||-000000-5-|

F)Transition 2
|--------------------|
|--------------------|
|--------------------|
|-7h8p7---10-8-7-----|
|-------8--------8-7-|
|--------------------|

G)Fun 
|-----------------------------------------------------------------|
|-----------------------------------------------------------------|
|o------------7--------------------------------------------------o|4x
|o---------7------7h8p7---10--------10---8---------------0-8-7-5-o|
|--5----8---------------8--------------------10----5-8-7-0-8-7-5--|
|----000--0--0--00-------------00-88----8---8----8-------0-8-7-5--|

H)Transition 3
|-------------|
|-------------|
|-------------|
|-5-8-7-5--1~-|
|-5-8-7-5--0~-|
|-5-8-7-5--1~-|
  * * * *

                                          =====] ===========================]
I)Breakdown 2                     1,2,3 Endings    4th Ending (Guitar 1)
|-----------------------------------------|----||---------------------------|
|-----------------------------------------|----||-10h11p10--13-11-10h11p10--|
|o----------------------------------------|---o||---------10--------------10|
|o-5-8-7-5---0-5-8-7-5--4---5-8-7-5-7-5-4-|-4-o||---------------------------|
|--5-8-7-5---0-5-8-7-5--4---5-8-7-5-7-5-4-|-4--||---------------------------|
|--5-8-7-5---0-5-8-7-5--4---5-8-7-5-7-5-4-|-4--||---------------------------|
   * * * *     * * * *      * * * * * * *
                                                   4th Ending (Guitar 2)
                                                |---------------------------|
                                                |---------------------------|
                                                |---------------------------|
                                                |-7h8p7---10-8-7h8p7--------|
                                                |-------8------------8------|
                                                |---------------------------|

J)Breakdown 3 (Guitar 1)- Play through this 8 times till end of the song
|----------------------------------------------------------------|
|----------------------------------------------------------------|
|o--------------------------------------------------------------o|8x
|o-00000--00000000----0000----00-0--000---000000---0-000---0000-o|
|--00000--00000000----0000----00-0--000---000000---0-000---0000--|
|--00000--00000000----0000----00-0--000---000000---0-000---0000--|

J)Breakdown 3 (Guitar 2)- Begin riff at 2nd time through; play 6x
|-------------------------------------------------------------------------|
|-------------------------------------------------------------------------|
|o------------------------------------------------------------------------|
|o------------------------------------------------------------------------|
|-3h5--3h5-3h5--3h5--3h5-3h5--3h5--3h5--2p0--3p0--2p0-3p0--3p0--2p0-3p0---|
|----00-------00---00-------00---00---00---00---00-------00---00-------00-|

|-----------------------|
|-----------------------|
|----------------------o|
|----------------------o|
|-2p0--2h3p2p0----------|
|----00--------3p0-3p0--|

K)End
|-------|---|
|-------|---|
|-7-----|---|
|-x--0~-|-0-|
|-5--0~-|-0-|
|----0~-|-0-|


Small Key
x - Mute
~ - Hold note out
* - Palm Mute
<>- Harmonic
h - Hammer on
p - Pull off
Добавлено: 07.07.2012
Другие материалы по этой песне:

Страница создана 14.04.2012
http://primanota.ru/texas-in-july/hook-line-and-sinner-chords.htm
Привет, Гость.
Предлагаем пройти революционный курс по гитаре.
Подарок от PrimaNota.Ru, забирай!