PrimaNota.ru - самый крупный в мире бесплатный архив песенных текстов, аккордов, табулатур и нот


Texas Hippie Coalition - Pissed Off And Mad About It - таба, видео

Регистрация Запомнить меня
Войти через:  Facebook Google Twitter Vk Yandex Mail.ru

Texas Hippie Coalition - Pissed Off And Mad About It - таба, видео

Печатать
Просмотров: 280
(/) Slide Up  (\) Slide Down  (h) Hammer On  (p) Pull Off  (b) Bend (r) Release (v) Vibrato

E|--------------------------------------|
B|--------------------------------------|
G|--------------------------------------|
D|--------------------------------------|
A|--------------------------------------|
D|--0--0--1--0--0--0--3--3--5--5--3--3--|

E|--------------------------------|
B|--------------------------------|
G|--------------------------------|
D|--------------------------------|
A|--0--0--1--0--0--0--3--0--12\5--|
D|--0--0--1--0--0--0--3--0--12\5--|

E|--------------------------------------|
B|--------------------------------------|
G|--------------------------------------|
D|--------------------------------------|
A|--0--0--1--0--0--0--3--3--5--5--3--3--|
D|--0--0--1--0--0--0--3--3--5--5--3--3--|

E|----------------------------|
B|----------------------------|
G|----------------------------|
D|----------------------------|
A|--0--0--0--0--0-------b3----|
D|--0--0--0--0--0--3--5----3--|

thcoutlaw.com
Добавлено: 31.07.2012
Другие материалы по этой песне:
  • Аккорды и текст

Страница создана 16.05.2012
http://primanota.ru/texas-hippie-coalition/pissed-off-and-mad-about-it-chords.htm
Привет, Гость.
Предлагаем пройти революционный курс по гитаре.
Подарок от PrimaNota.Ru, забирай!