PrimaNota.ru - самый крупный в мире бесплатный архив песенных текстов, аккордов, табулатур и нот


Texas Hippie Coalition - Dont Come Lookin - бас-таба, видео

Регистрация Запомнить меня
Войти через:  Facebook Google Twitter Vk Yandex Mail.ru

Texas Hippie Coalition - Dont Come Lookin - бас-таба, видео

Печатать
Просмотров: 195
---------------------------------------------------------------------------
               DON'T COME LOOKIN' - Texas Hippie Coalition
---------------------------------------------------------------------------

Tabbed by : Hurm
Tuning: standard 5-string (BEADG)
Listen close for timings!

Intro
G|---------------------------------|
D|---------------------------------|
A|---------------------------------|
E|---------------------------------|
B|----------------6--4--1----------|

G|----------------------------------------------------------------|
D|------------3\------------------------------3\------------------|
A|----3---1-1----------------13-------3---1-1---------------------|
E|----------------1---------3--1------------------1---------------|
B|1------------------4--1-------4-1-------------------4--1--------|

Verse
G|----------------------------------------------------------------|
D|--------------------------------------------3-------------------|
A|----3---1-1-------------------------3---1-1---1-----------------|
E|----------------1-------------------------------1---------------|
B|1------------------4--1---------1-------------------4--1--------|

G|----------------------------------------------------------------|
D|--------------------------------------------3-------------------|
A|--------1-1-------------------13----3---1-1---1-----------------|
E|----------------1-------------------------------1---------------|
B|1------------------4--1---------1-------------------4--1--------|

Pre-chorus
G|--------------------------------|
D|--------------------------------|
A|--------------------------------|
E|--------------------------------|
B|4-4-4-4-4-4-4-4-6-6-6-6-6\\-----|

Chorus
G|----------------------------------------------------------------|
D|----------------------------------------------------------------|
A|--------1-1-----------------------------1-1---------------------|
E|----------------1-------------------------------1--1------------|
B|1-1----------------4--1-----101-1-1--------------41--41---------|

G|----------------------------------------------------------------|
D|----------------------------------------------------------------|
A|--------1-1-----------------------------------------------------|
E|----------------1-----------1-3-4-4-4-4-4-4-4-4-6-6-6-6-6--\\---|
B|1-1----------------4--1-----------------------------------------|

Intro
G|----------------------------------------------------------------|
D|------------3\------------------------------3\------------------|
A|----3---1-1----------------13-------3---1-1---------------------|
E|----------------1---------3--1------------------1---------------|
B|1------------------4--1-------4-1-------------------4--1--------|

Verse 2 (slightly different)
G|----------------------------------------------------------------|
D|--------------------------------------------3-------------------|
A|--------1-1----------------13-------3---1-1---1-----------------|
E|----------------1---------3--1------------------1---------------|
B|1------------------4--1-------4-1-------------------4--1--------|

G|----------------------------------------------------------------|
D|--------------------------------------------3-------------------|
A|--------1-1-------------------13----3---1-1---1-----------------|
E|----------------1-------------------------------1---------------|
B|1------------------4--1---------1-------------------4--1--------|

Pre-chorus
G|--------------------------------|
D|--------------------------------|
A|--------------------------------|
E|--------------------------------|
B|4-4-4-4-4-4-4-4-6-6-6-6-6\\-----|

Chorus (almost the same as first chorus)
G|----------------------------------------------------------------|
D|----------------------------------------------------------------|
A|--------1-1-----------------------------1-1---------------------|
E|----------------1-------------------------------1--1------------|
B|1-1----1-----------4--1-----101-1-1----1---------41--41---------|

G|----------------------------------------------------------------|
D|----------------------------------------------------------------|
A|--------1-1-----------------------------------------------------|
E|----------------1-----------1-3-4-4-4-4-4-4-4-4-6-6-6-6-6--\\---|
B|1-1----1-----------4--1---1-------------------------------------|

Bridge
G|----------------------------------------------------------------|
D|----------------------------------------------------------------|
A|----------------------------------------------------------------|
E|------------------------------------------------------------1-3-|
B|1---------------------------4---1-------------------------4-----|

G|------------------------------3-5-------------------------------|
D|--------------------------3-5-----------------------------------|
A|3----------------------/6---------------------------------------|
E|----------------------------------------------------------------|
B|------------------------------------------------1-1-1-1-1-1-1-1-|

G|----------------------------------------------------------------|
D|----------------------------------------------------------------|
A|----------------------------3-----------------------------------|
E|----------------------------------------------------------1-----|
B|4--4--1---1-1---4--4--1---1--1--4--4--1---1-1---4--4--1------41-|

G|----------------------------------------------------------------|
D|----------------------------------------------------------------|
A|----------------------------------------------------------------|
E|--------------------------------4-4-4-4-4-4-4-4-6-6-6-6-6--\\---|
B|4--4--1---1-1---4--4--1-----------------------------------------|

Chorus
G|----------------------------------------------------------------|
D|----------------------------------------------------------------|
A|--------1-1-------------------13---------1-1------------------13|
E|----------------1-3----------1------------------1--1------------|
B|1-1----------------4--1-----1---1-1-----1--------41--41-----10--|

G|----------------------------------------------------------------|
D|----------------------------------------------------------------|
A|--------1-1-----------------------------------------------------|
E|----------------1-----------1-3-4-4-4-4-4-4-4-4-6-6-6-6-6-6-6-6-|
B|1-1----------------4--1---1-------------------------------------|

G|--------------------------------|
D|--------------------------------|
A|--------------------------------|
E|8-8-8-8-8-8-8-8-8-8-1010101010\\|
B|---------------(these^ are tens)|

Outro
G|----------------------------------------------------------------|
D|------------3---------------------------------------------------|
A|----3---1-1---1------------13-------3---1-1---------------------|
E|----------------1---------3--1------------------1---------------|
B|1------------------4--1-------4-1-------------------4--1~~------|

| /  slide up
| \  slide down
| ~  let ring

===========================================================================
Добавлено: 04.02.2014
Вам также может быть интересно:
Другие материалы по этой песне:
  • Аккорды и текст

Страница создана 04.02.2014
http://primanota.ru/texas-hippie-coalition/dont-come-lookin-chords.htm
Привет, Гость.
Предлагаем пройти революционный курс по гитаре.
Подарок от PrimaNota.Ru, забирай!