PrimaNota.ru - самый крупный в мире бесплатный архив песенных текстов, аккордов, табулатур и нот


Testament - Fall Of Sipledome - текст песни, таба, видео

Регистрация Запомнить меня
Войти через:  Facebook Google Twitter Vk Yandex Mail.ru

Testament - Fall Of Sipledome - текст песни, таба, видео

Печатать
Просмотров: 131
Авторы: Eric Peterson, Chuck Billy

Fall of Sipledome

As recorded by Testament

(From the 1999 Album The Gathering)

Transcribed by ScreamOfSilence

Tuning: (Db Gb B E Ab Db)

Intro
G 1
|--------------------------------------------------------------------------|
|--------------------------------------------------------------------------|
|--------------------------------------------------------------------------|
|-2-----------2------------2----------2----------5--------8--------8-7-5-7-|
|-2-----------2------------2----------2----------5--------8--------8-7-5-7-|
|-0-----------0------------0----------0----------3--------6--------6-5-3-5-|
| G2
|--------------------------------------------------------------------------|
|----------------------------------------------------8-8------12--12-------|
|-----------------------------------------10-10-----7-7-7~--11--11---------|
|----8-8-----------8-8---------8-8-------9--9—-9~--------------------------|
|---7-7-7~--------7-7-A7~-----7-7-7~---------------------------------------|
|--------------------------------------------------------------------------|

G1
|-------------------------------------------------------------------------|
|-------------------------------------------------------------------------|
|-------------------------------------------------------------------------|
|-2-----------2------------5------------------8----------8-7-5-7----------|
|-2-----------2------------5------------------8----------8-7-5-7----------|
|-0-----------0------------3------------------6----------6-5-3-5----------|
| G2
|-------------------------------------------------------------------------|
|-------------------------------------------------------------------------|
|----10-10-------10-10----------------------------------------------------|
|---9--9—-9~----9--9—-9~----------11--11----------------------------------|
|-------------------------------10--10—-10~-------------------------------|
|-------------------------------------------------------------------------|

G1
|-------------------------------------------------------------------------|
|-------------------------------------------------------------------------|
|-------------------------------------------------------------------------|
|-------------------------------------------------------------------------|
|-------------------------------------------------------------------------|
|-0-0-00-0---0-0-00-0---0-0-00-0---0-0-00-0---0-0-00-0---0-0-00-0---------|
| G2
|-------------------------------------------------------------------------|
|-------------------------------------------------------------------------|
|----------------------------------------------10-10----------------------|
|--8-8--------------------8-8-----------------9--9—-9~--------------------|
|-7-7-7~-----------------7-7-7~-------------------------------------------|
|-------------------------------------------------------------------------|

G1
|-------------------------------------------------------------------------|
|-------------------------------------------------------------------------|
|-------------------------------------------------------------------------|
|---------------------------------------------------------8-7-5-7---------|
|---------------------------------------------------------8-7-5-7---------|
|-0-0-00-0---0-0-00-0---3-3-33-3---3-3-33-3---6-6-66-6----6-5-3-5---------|
| G2
|-------------------------------------------------------------------------|
|------------------------8-8----------------------------------------------|
|---10-10---------------7-7-7~--------------------------------------------|
|--9--9—-9~---------------------------------------------------------------|
|-------------------------------------------------------------------------|
|-------------------------------------------------------------------------|

G1
|--------------------------------------------------------------------|
|--------------------------------------------------------------------|
|--------------------------------------------------------------------|
|---—---------8-7-5-7------—------8-7-5-7------—-------8-7-5-7-------|
|-------------8-7-5-7-------------8-7-5-7--------------8-7-5-7-------|
|---0-0-00-0--6-5-3-5---0-0-00-0--6-5-3-5----0-0-00-0--6-5-3-5-------|
|G2
|--------------------------------------------------------------------|
|--------------------------------------------------------------------|
|---10-10----------------10-10-----------------10-10-----------------|
|--9--9-----------------9--9------------------9--9-------------------|
|--------------------------------------------------------------------|
|--------------------------------------------------------------------|


Intro
Riff 1 X 2
Riff 2
Riff 1
Riff 3
Riff 1
Riff 2
Riff 1
Riff 2
Riff 3
Riff 4
Riff 5
Riff 6
Guitar solo
Riff 1
Riff 2
Riff 1 X 3


Riff. 1
|-------------------------------------------------------------------------|
|-------------------------------------------------------------------------|
|-------------------------------------------------------------------------|
|-8-8-8-8-------------8-8-8-8-------------8-8-8-8-------------8-8-8-8-----|
|--7-7-7-7-5h7---------7-7-7-7-5H7---------7-7-7-7-5H7---------7-7-7-7-A7~|
|-------------00000000------------00000000------------00000000------------|

Riff 2
|--------------------------------------------------------------------------|
|--------------------------------------------------------------------------|
|--------------------------------------------------------------------------|
|--------------------------------------------------------------------------|
|--------------------------------------------------------------------------|
|-33333333-55555555-33333333-22222222--33333333-55555555-33333333-22222222-|

Riff 3
|--------------------------------------------------------------------------|
|--------------------------------------------------------------------------|
|--------------------------------------------------------------------------|
|-------------------7777-6666----------------------------------------------|
|-2---8-8-7--4-4-5-----------8888-----------2--8-8-7--4-4-5-5-6-7----------|
|-0---6-6-5--2-2-3-----------------6-5-6----0--6-6-5--2-2-3------3-5-6-----|

|--------------------------------------------------------------------------|
|--------------------------------------------------------------------------|
|--------------------------------------------------------------------------|
|-------------------------------------------------------7777-6666------9-7-|
|-2---8-8-7--4-4-5-7777-6666-5555--------2--8-8-7--4-4-5----------8888-7-5-|
|-0---6-6-5--2-2-3---------------6-5-6---0--6-6-5--2-2-3-------------------|


Riff 4
|------------------------------------------------------------------|
|------------------------------------------------------------------|
|------------------------------------------------------------------|
|-----2--4----9-11----2--4----9-11----2--4----9-11---2--4----9-----|
|-----2--4----7-9-----2--4----7-9-----2--4----7-9----2--4----7-----|
|---0----2--0-------0----2--0-------0----2--0------0----2--0-------|

Riff 5
|---------------------------------------------------------|
|---------------------------------------------------------|
|---------------------------------------------------------|
|---------------------------------------------------------|
|---------------------------------------------------------|
|-0-0-0-0-00-0-0-0-0-0-00-0-0-0-0-0-00-0-0-0-0-0-00-0-----|

Riff 6
|------------------------------------------------------------------|
|------------------------------------------------------------------|
|------------------------------------------------------------------|
|-----2--4----9-11----2--4----9-11----2--4----9-11---2--4----------|
|-----2--4----7-9-----2--4----7-9-----2--4----7-9----2--4----9\----|
|---0----2--0-------0----2--0-------0----2--0------0----2--0-------|


Guitar solo
|-------------------------------------------------------------------------|
|-------------------------------------------------------------------------|
|-------------------------------------------------------------------------|
|--------------------------------------15-14-12-14~---14-16-17-12~-A12~---|
|-12~--14-15~--15-14-12-14~--15-12-14-------------------------------------|
|-------------------------------------------------------------------------|
|G2
|-------------------------------------------------------------------------|
|-------------------------------------------------------------------------|
|-------------------------------------------------------------------------|
|--------------------------------------10--9--7--9-----------------7------|
|---------------------------------------8--7--5--7-----------------5------|
|-5555-7-888----8-7--5--777---8-5--7--------------------------------------|


|--------------------------------------------------------------------|
|--------------------------------------------------------------------|
|--------------------------------------------------------------------|
|-12-10-9-10-9-7-10~p9p7-9~--10p9p7-9~----10-9-10-9-9h10-9-7-A9p7----|
|--------------------------------------------------------------------|
|--------------------------------------------------------------------|
|G2
|--------------------------------------------------------------------|
|--------------------------------------------------------------------|
|--------------------------------------------------------------------|
|-10--12-------9------------------9----------------------------------|
|--8--10-------7-----------10-9-7--10-9-7----------------------------|
|----------------------------------------0---------------------------|

|-------------------------------------------------------|
|-------------------------------------------------------|
|-------------------------------------------------------|
|-------------------10-9-10----12h10-9-10---------------|
|---10-12p10-9-10p9-------------------------------------|
|-------------------------------------------------------|
|G2
|-------------------------------------------------------|
|-------------------------------------------------------|
|-------------------------------------------------------|
|------------------------------7------------------------|
|------------------------------5------------------------|
|-------------------------------------------------------|


|--------------------------------------------------------------------|
|-----------------------17-17b19r17-15-------------------------------|
|-----------------16-19---------------16~--16~-----17r16-14-16~------|
|---------15-17-19---------------------------------------------------|
|-15-17-19-----------------------------------------------------------|
|--------------------------------------------------------------------|
|G2
|--------------------------------------------------------------------|
|--------------------------------------------------------------------|
|--------------------------------------------------------------------|
|----10---------12------------------9------------------9-------------|
|-----8---------10------------------7-----------10-9-7--10-9-7-------|
|-000--------000---------------000-------------------------------0---|



|----------------------------------------------------------------------|
|-----------------------------------------------13-12-13-15p13-12-13---|
|-17-16-17-16--17-16-14-16p14-12-14p12-11-12p11------------------------|
|----------------------------------------------------------------------|
|----------------------------------------------------------------------|
|----------------------------------------------------------------------|
|G2
|----------------------------------------------------------------------|
|----------------------------------------------------------------------|
|----------------------------------------------------------------------|
|--------------------------------------------------------------7-------|
|--------------------------------------------------------------5-------|
|----------------------------------------------------------------------|


|-----------------------------------------------------------------|
|--18p15----------------------------------------------------------|
|-------16----------12--------------------------------------------|
|---------15-12h14-----15-14-12----12-14~----14~------------------|
|-------------------------------15--------------------------------|
|-----------------------------------------------------------------|
|G2
|-----------------------------------------------------------------|
|-----------------------------------------------------------------|
|-----------------------------------------------------------------|
|----10---------12------------------9---------------9-------------|
|-----8---------10------------------7--------10-9-7--10-9-7-------|
|-000--------000---------------000----------------------------0---|




|--------------------------17-21r19-17-21~r19p17-19~--21~r19p17-19~-|
|----15-19r17-15---------19-----------------------------------------|
|-\16-----------16~-------------------------------------------------|
|-------------------------------------------------------------------|
|-------------------------------------------------------------------|
|-------------------------------------------------------------------|
|G2
|-------------------------------------------------------------------|
|-------------------------------------------------------------------|
|-------------------------------------------------------------------|
|-----------------------------7--------------------10---------12----|
|-----------------------------5------12\------------8---------10----|
|----------------------------------------------000--------000-------|


|-------------------------------------------------------------------------|
|--------------------------------15---15---------------18-17-15--15-17----|
|-16~-14-16-17-16-14-16~-14-16-17--17---17-16-17-16-14---------17-----16~-|
|-------------------------------------------------------------------------|
|-------------------------------------------------------------------------|
|-------------------------------------------------------------------------|
|G2
|-------------------------------------------------------------------------|
|-------------------------------------------------------------------------|
|-------------------------------------------------------------------------|
|----------9--------9---------9--------9---7-----------10----12-----------|
|----------7--------7---------7--------7---5------------8----10-----------|
|--0000000---0000000---0000000--0000000-----------------------------------|

|-----------------------------------------------------------------------|
|------------------------------------------------------------18-17-15---|
|-14-13-11-14~p13p11-13~--14~-13~--14------------------12-14---------16~|
|---------------------------------------------12-14-15------------------|
|------------------------------------12-14-15---------------------------|
|-----------------------------------------------------------------------|
|G2
|-----------------------------------------------------------------------|
|-----------------------------------------------------------------------|
|-----------------------------------------------------------------------|
|--------9--------9---------9--------9--7--------10--------12---------9-|
|--------7--------7---------7--------7--5---------8--------10---------7-|
|-0000000--0000000---0000000--0000000--------000-------000-------000----|

|------------------------------------------------------------------------|
|------------------------------------------------------------------------|
|-17p16p14h16--17p16p14h16--17p16p14h16—17~-16p14p12---------------------|
|-----------------------------------------------------14p12h14~--A14~----|
|------------------------------------------------------------------------|
|------------------------------------------------------------------------|


Final part

|--------------------------------------------------------------------------|
|--------------------------------------------------------------------------|
|--------------------------------------------------------------12----------|
|-12-12-12-12--11-11-11-11-------------------------------------12----------|
|-------------------------5-5-5-5---7-7-7-7---8-8-8-8----------10----------|
|------------------------------------------------------00000000------------|



Tablature Legend
----------------
 h   - hammer-on
 p   - pull-off
 b   - bend
 r   - bend release 
 /\  - slide into or out of (from/to "nowhere")
 AH  - artificial harmonic


Maybe there are some mistakes, but I hope you will have some fun playing it.

So Enjoy!!!


Добавлено: 01.07.2012
Другие материалы по этой песне:
  • Аккорды и текст

Страница создана 26.05.2012
http://primanota.ru/testament/fall-of-sipledome-chords.htm
Привет, Гость.
Предлагаем пройти революционный курс по гитаре.
Подарок от PrimaNota.Ru, забирай!