PrimaNota.ru - самый крупный в мире бесплатный архив песенных текстов, аккордов, табулатур и нот


Testa Rosa - Window Breaker - бас-таба, видео

Регистрация Запомнить меня
Войти через:  Facebook Google Twitter Vk Yandex Mail.ru

Testa Rosa - Window Breaker - бас-таба, видео

Печатать
Просмотров: 40
-------------------------------------------------------------------------------
                             Window Breaker - Testa Rosa
-------------------------------------------------------------------------------
http://testarosamusic.com/
Tabbed by: Hanoihancock 

Verse (Intro Guitar/Vox Alone 4 Measures then Enter Bass/Drums 4 Measures)
G|---------------------------------------------------------------------------|
D|---------------------------------------------------------------------------|
A|-7--7/9---------7--7/9----7--7/9---------7--7-7----------------------------|
E|-------7--7-5-7-------7-7-------7--7-5-7-----------------------------------|

Chorus 
G|---------------------------------------------------------------------------|
D|---9--9/11\9---9--9/11\9---9------------7-7-----9--9/11\9---9--9/11\9-9----|
A|-7---7-------7---7-------7---7--------/7---7--7---7-------7---7------7-7---|
E|------------------------------7/9\7\5-------5------------------------------|

G|-----------------------------------------4--4--------------------4--4------|
D|-9/11\9-9------7-7---------------------2--2--2-----------------2--2--2-----|
A|-------7-7---/7---7-----------2--2-0-2---------0--0-0-2--2-0-2-------------|
E|----------5--------5-2--2-0-2--------------0--0----4---------------0--0----|

G|-----------------4--4------------|
D|---------------2--2--2-----------|
A|0--0-0-2--2-0-2--------0---2--/7-|
E|----4--------------0--0----------|

Guitar Solo Interlude (Repeat Last 8 Measures of Chorus)
G|---------------------------------------------------------------------------|
D|---9--9/11\9---9--9/11\9-9-----9/11\9-9------7-7---------------------2-----|
A|-7---7-------7---7------7-7----------7-7---/7---7-----------2--2-0-2-------|
E|----------------------------------------5--------5-2--2-0-2----------------|

G|-4--4--------------------4--4-----------|
D|--2--2-----------------2--2--2----------|
A|-------0--0-0-2--2-0-2---------0--2--/7-|
E|---0--0----4---------------0--0---------|

Verse (Intro Guitar/Vox Alone 4 Measures then Enter Bass/Drums 4 Measures)
G|---------------------------------------------------------------------------|
D|---------------------------------------------------------------------------|
A|-7--7/9---------7--7/9----7--7/9---------7--7-7----------------------------|
E|-------7--7-5-7-------7-7-------7--7-5-7-----------------------------------|

Chorus 
G|---------------------------------------------------------------------------|
D|---9--9/11\9---9--9/11\9---9------------7-7-----9--9/11\9---9--9/11\9-9----|
A|-7---7-------7---7-------7---7--------/7---7--7---7-------7---7------7-7---|
E|------------------------------7/9\7\5-------5------------------------------|

G|-----------------------------------------4--4--------------------4--4------|
D|-9/11\9-9------7-7---------------------2--2--2-----------------2--2--2-----|
A|-------7-7---/7---7-----------2--2-0-2---------0--0-0-2--2-0-2-------------|
E|----------5--------5-2--2-0-2--------------0--0----4---------------0--0----|

G|-----------------4--4--------------------------------|
D|---------------2--2--2--------------------7-------2--|
A|0--0-0-2--2-0-2--------0---2---0------5/7------------|
E|----4--------------0--0---------------------------0--|


| /  slide up
| \  slide down
| h  hammer-on
| p  pull-off
| ~  vibrato
| +  harmonic
| x  Mute note
===============================================================================
Добавлено: 06.05.2016
Другие материалы по этой песне:
  • Аккорды и текст

Страница создана 06.05.2016
http://primanota.ru/testa-rosa/window-breaker-chords.htm
Привет, Гость.
Предлагаем пройти революционный курс по гитаре.
Подарок от PrimaNota.Ru, забирай!