PrimaNota.ru - самый крупный в мире бесплатный архив песенных текстов, аккордов, табулатур и нот


Testa Rosa - Summer Of We Three - бас-таба, видео

Регистрация Запомнить меня
Войти через:  Facebook Google Twitter Vk Yandex Mail.ru

Testa Rosa - Summer Of We Three - бас-таба, видео

Печатать
Просмотров: 37
-------------------------------------------------------------------------------
                           Summer of We Three - Testa Rosa
-------------------------------------------------------------------------------
http://testarosamusic.com/
Tabbed by: Hanoihancock 

Intro (Guitar Alone x 1)
Verse x 6 (Instrumental x 2 then Vox x 4)
G|---------------------------------------------------------------------------|
D|---------------------------------------------------------------------------|
A|-4-4-4-----2-2h4-4-4---4p2-0h2-2-2---4p2-0h2-2-2---4p2-0-------------------|
E|--------2h4-4-------------4-------------4-------------4--2-2-2---0-2-4-0---|

                                     1st-5th  6th
G|-----------------------------------|-----|---------|
D|-----------------------------------|-----|---------|
A|-----------------------------------|-----|---------|
E|-2-2-2---2-4-5-5-5---0-2-4-0-5-5-5-|-5/7-|-0-5--5\-|

Chorus A 
G|---------------------------------------------------------------------------|
D|---------------------------------------------------------------------------|
A|---------------------------------------------------------------------------|
E|-0--0-0--0--0-0--0-5--5-5--5--5-5--5\0--0-0--0--0-0---/5--5-5--5\44444444--|

Verse
G|---------------------------------------------------------------------------|
D|---------------------------------------------------------------------------|
A|-4-4-4-----2-2h4-4-4---4p2-0h2-2-2---4p2-0h2-2-2---4p2-0-------------------|
E|--------2h4-4-------------4-------------4-------------4--2-2-2--0-2--0-2-0-|

G|-------------------------------------------|
D|-------------------------------------------|
A|-------------------------------------------|
E|-2-2-2--0-2-2/4-5-5-5---0-2-4-0-5-5-5--5/7-|

Verse Up a Notch
G|-----------------------------------------4-4-4-4-4-------4-4-4-4----------|
D|-------1h2p1-1-----------1h2p1-1h2----2/4---4---4-----2/4---4---4---------|
A|-4-4-4------2-2/4--4-4-4------2---2-2-------------2-2------------2--------|
E|--------------------------------------------------------------------------|

G|--------------------------------------------------------------------------|
D|-------4-4-4-4-4-------------------------7-7-7-7-7-------7-7-7-7----------|
A|------4---4---4-----------------------5/7---7---7-----5/7---7---7---------|
E|-2-2-2-----------2-2--0-2-0-2-2/4-5-5-------------5-5------------5--------|

Chorus B
G|--------------------------------------------------------------------------|
D|-----------------------------------7----------7----------7---------7------|
A|-----------------------------------7----------7----------7---------7------|
E|-0--0-0--0--0-0--4--4-4--4--4-4--5--5/7\5/7-5--5/7\5/7-5--5/7\5/7-5----5\-|

G|--------------------------------------------------------------------------|
D|-----------------------------------7----------7----------7---------7------|
A|-----------------------------------7----------7----------7---------7---4--|
E|-0--0-0--0--0-0--4--4-4--4--4-4--5--5/7\5/7-5--5/7\5/7-5--5/7\5/7-5-------|

| /  slide up
| \  slide down
| h  hammer-on
| p  pull-off
| ~  vibrato
| +  harmonic
| x  Mute note
===============================================================================
Добавлено: 06.05.2016
Вам также может быть интересно:
Другие материалы по этой песне:
  • Аккорды и текст

Страница создана 06.05.2016
http://primanota.ru/testa-rosa/summer-of-we-three-chords.htm
Привет, Гость.
Предлагаем пройти революционный курс по гитаре.
Подарок от PrimaNota.Ru, забирай!