PrimaNota.ru - самый крупный в мире бесплатный архив песенных текстов, аккордов, табулатур и нот


Testa Rosa - Patches I Couldve Written That - бас-таба, видео

Регистрация Запомнить меня
Войти через:  Facebook Google Twitter Vk Yandex Mail.ru

Testa Rosa - Patches I Couldve Written That - бас-таба, видео

Печатать
Просмотров: 38
-------------------------------------------------------------------------------
           Patches (I Could've Written That) - Testa Rosa
-------------------------------------------------------------------------------
http://testarosamusic.com/
Tabbed by: Hanoihancock 

Intro Verse 
G|----------------------------2h4p2-2-h4p2-----------------------------------|
D|------------------4/5-4-0h2------2------2-----------------------0----------|
A|-5-4-0h2--0-2--0-2------------------------5-4-0h2--0-2--0-2---0------------|
E|------------------------------------------------------------3--------------|

Verse 
G|----------------------------2-h4-p2-2-h4-p2--------------------------------|
D|------------------4/5-4-0h2--------2---------------------------------------|
A|-5-4-0h2--0-2--0-2--------------------------5-4-0h2--0-2--0-2-------0-0-0--|
E|--------------------------------------------------------------3-3-3--------|

G|----------------------------2h4p2-2h4p2------------------------------------|
D|------------------4/5-4-0h2------2-----2------------------------0----------|
A|-5-4-0h2--0-2--0-2----------------------0-5-4-0h2--0-2--0-2---0------------|
E|------------------------------------------------------------3--------------|

Chorus
G|-----7-----------------------7-7----7-------------------7-7----------------|
D|-3/5--5h7/8--8-8/10\8-7h8--7----7--5-5----------------7----7---------------|
A|--------------------------5-5----------0--0-0-2-4-0-5--5-------------------|
E|---------------------------------------------------------------------------|

G|---7-----------------------7-7----7----------------------------------------|
D|-5--5h7/8--8-8/10\8-7h8--7----7--5-5---------------------------------------|
A|------------------------5-5----------0-0--0-0--0-0--0-0--------------------|
E|---------------------------------------------------------------------------|

Verse 
G|----------------------------2h4p2-2h4p2------------------------------------|
D|------------------4/5-4-0h2------2-----2------------------------0----------|
A|-5-4-0h2--0-2--0-2----------------------0-5-4-0h2--0-2--0-2---0------------|
E|------------------------------------------------------------3--------------|

Chorus
G|-----7-----------------------7-7----7-------------------7-7----------------|
D|-3/5--5h7/8--8-8/10\8-7h8--7----7--5-5----------------7----7---------------|
A|--------------------------5-5----------0--0-0-2-4-0-5--5-------------------|
E|---------------------------------------------------------------------------|

G|---7-----------------------7-7----7----------------------------------------|
D|-5--5h7/8--8-8/10\8-7h8--7----7--5-5---------------------------------------|
A|------------------------5-5----------0-0--0-0--0-0--0-0--0-0-0-0-(x16)-----|
E|---------------------------------------------------------------------------|

Guitar Solo
G|----------------------------2-h4-p2-2-h4-p2--------------------------------|
D|------------------4/5-4-0h2--------2---------------------------------------|
A|-5-4-0h2--0-2--0-2--------------------------5-4-0h2--0-2--0-2-------0-0-0--|
E|--------------------------------------------------------------3-3-3--------|

G|----------------------------2h4p2-2h4p2------------------------------------|
D|------------------4/5-4-0h2------2-----2------------------------0----------|
A|-5-4-0h2--0-2--0-2----------------------0-5-4-0h2--0-2--0-2---0------------|
E|------------------------------------------------------------3--------------|

Chorus 
G|-----7-----------------------7-7----7-------------------7-7----------------|
D|-3/5--5h7/8--8-8/10\8-7h8--7----7--5-5----------------7----7---------------|
A|--------------------------5-5----------0--0-0-2-4-0-5--5-------------------|
E|---------------------------------------------------------------------------|

G|---7-----------------------7-7----7----------------------------------------|
D|-5--5h7/8--8-8/10\8-7h8--7----7--5-5---------------------------------------|
A|------------------------5-5----------0-0--0-0--0-0--0-0--------------------|
E|---------------------------------------------------------------------------|

Verse 
G|----------------------------2-h4-p2-2-h4-p2--------------------------------|
D|------------------4/5-4-0h2--------2---------------------------------------|
A|-5-4-0h2--0-2--0-2--------------------------5-4-0h2--0-2--0-2-------0-0-0--|
E|--------------------------------------------------------------3-3-3--------|

G|----------------------------2h4p2-2h4p2------------------------------------|
D|------------------4/5-4-0h2------2-----2-----------------------------------|
A|-5-4-0h2--0-2--0-2----------------------0-5-4-0h2--0-2--0-2---0-------0--2-|
E|------------------------------------------------------------3---2---3------|

Outro 
G|----------------------------------------7--------7--------7--------7-------|
D|------------------------------------7-----7--7-----7--7-----7--7-----------|
A|-----------------0--0-0--0--0-0---/5--5-----5--5-----5--5-----5--5---------|
E|-3--3-3--3--3-3------------------------------------------------------------|

| /  slide up
| \  slide down
| h  hammer-on
| p  pull-off
| ~  vibrato
| +  harmonic
| x  Mute note
===============================================================================
Добавлено: 06.05.2016
Другие материалы по этой песне:
  • Аккорды и текст

Страница создана 06.05.2016
http://primanota.ru/testa-rosa/patches-i-couldve-written-that-chords.htm
Привет, Гость.
Предлагаем пройти революционный курс по гитаре.
Подарок от PrimaNota.Ru, забирай!