PrimaNota.ru - самый крупный в мире бесплатный архив песенных текстов, аккордов, табулатур и нот


Testa Rosa - Moon Rocks - бас-таба, видео

Регистрация Запомнить меня
Войти через:  Facebook Google Twitter Vk Yandex Mail.ru

Testa Rosa - Moon Rocks - бас-таба, видео

Печатать
Просмотров: 60
Уроки эстрадного вокала в Санкт-Петербурге
-------------------------------------------------------------------------------
                           MOON ROCKS - Testa Rosa
-------------------------------------------------------------------------------
http://testarosamusic.com/
Tabbed by: Hanoihancock

Tuning: Standard tuning (EADG)
Notes: Down/Up Strumming Pattern (Emphasize A string down, D string up)
Analog Synth Intro into Bass Intro x2 (Whole Band Start on A 2nd time through)  

Verse x4 
G|---------------------------------------------------------------------------|
D|-0--0-0-------0--0-0--0-0-------0--0-14-11--11-11/14-14-14-----12--12--12--|
A|-9-9-9-9/12-12-12--9-9-9-9/12-12-12--12---12----0---0--0--12/14--14--14----|
E|---------------------------------------------------------------------------|

G|--------------|-play 4th time through only---------------------------------|
D|---11--11--11-|---11--11--11---12--14--14--9--9--9--9--9--9----------------|
A|-12--12--12---|-12--12--12---14--16--16--10-10-10-10-10-10-10--------------|
E|--------------|------------------------------------------------------------|

Chorus x 2
G|-11h12-11---9--9-9-9-9--9-9-9-9--9-9-9--11h12-11--0---0--0--0--0-----------|
D|-12------12\7--7-7-7-7--7-7-7-7--7-7-7--12-------12--12-12-12-12-----------|
A|------------0--0-0-0-0--0-0-0-0--0-0-0-----------10--10-10-10-10-----------|
E|--------------------------------------------------x---x--x--x--x-----------|

G|--0--0--0--0---0--0--0--11h12-11-------------------------------------------|
D|-12-12-12-12--12-12-12--12------12--9---9--9--9--9---9/12-12-12-12-12------|
A|-10-10-10-10--10-10-10-------------10--10-10-10-10--10/14-14-14-14-14------|
E|--x--x--x--x---x--x--x-----------------------------------------------------|

G|--------------------|-play 2nd time through only--------------------------||
D|-12/14--14-14-14-14-|--14/16--16-16-16-16---------------------------------||
A|-14/16--16-16-16-16-|--16/17--17-17-17-17---------------------------------||
E|--------------------|-----------------------------------------------------||

Turnaround x 3 
G|---------------------------------------------------------------------------|
D|--9---9--9--9--9---9/12-12-12-12-12--12/14--14-14-14-14-14/16--16-16-16-16-|
A|-10--10-10-10-10--10/14-14-14-14-14--14/16--16-16-16-16-16/17--17-17-17-17-|
E|---------------------------------------------------------------------------|

Transition back to Verse
G|---------------------------------------------------------------------------|
D|-16-16-16-16-16-16--11--12---9---9--9--9--9---9--9--9--9---9--9--9--9--11--|
A|-17-17-17-17-17-17--12--14--10--10-10-10-10--10-10-10-10--10-10-10-10--12--|
E|---------------------------------------------------------------------------|

G|---------------------------------------------------------------------------|
D|-16--16-16-16-16--16-16-16-16--16-16-16--11--12---9---9--9--9--9-----------|
A|-17--17-17-17-17--17-17-17-17--17-17-17--12--14--10--10-10-10-10-----------|
E|---------------------------------------------------------------------------|

G|---------------------------------------------------------------------------|
D|--9--9--9--9---9--9--9--9--7-----------------------------------------------|
A|-10-10-10-10--10-10-10-10--9-----------------------------------------------|
E|---------------------------------------------------------------------------|

Verse x4 (See Alternate Verse #3)
E|---------------------------------------------------------------------------|
D|-0--0-0-------0--0-0--0-0-------0--0-14-11--11-11/14-14-14-----12--12--12--|
A|-9-9-9-9/12-12-12--9-9-9-9/12-12-12--12---12----0---0--0--12/14--14--14----|
E|---------------------------------------------------------------------------|

G|--------------|-(play 4th verse only)--------------------------------------|
D|---11--11--11-|---11--11--11---12--14--14--9--9--9--9--9--9----------------|
A|-12--12--12---|-12--12--12---14--16--16--10-10-10-10-10-10-10--------------|
E|--------------|------------------------------------------------------------|

Alternate Verse #3
G|---------------------------------------------------------------------------|
D|-0----0-0-0------0--0-0--0-0--0----0-5/14-11--11-11/14-14-14-----12--12--12|
A|-7\5-5-5--9/10-10-10--9-9-9---7\5-5--7/12---12----0---0--0--12/14--14--14--|
E|---------------------------------------------------------------------------|
-
G|--------------|---(Return to normal Verse #4 above)------------------------|
D|---11--11--11-|------------------------------------------------------------|
A|-12--12--12---|------------------------------------------------------------|
E|--------------|------------------------------------------------------------|

Chorus x 2
G|-11h12-11---9--9-9-9-9--9-9-9-9--9-9-9--11h12-11--0---0--0--0--0-----------|
D|-12------12\7--7-7-7-7--7-7-7-7--7-7-7--12-------12--12-12-12-12-----------|
A|------------0--0-0-0-0--0-0-0-0--0-0-0-----------10--10-10-10-10-----------|
E|--------------------------------------------------x---x--x--x--x-----------|

G|--0--0--0--0---0--0--0--11h12-11-------------------------------------------|
D|-12-12-12-12--12-12-12--12------12--9---9--9--9--9---9/12-12-12-12-12------|
A|-10-10-10-10--10-10-10-------------10--10-10-10-10--10/14-14-14-14-14------|
E|--x--x--x--x---x--x--x-----------------------------------------------------|

G|--------------------|-play 2nd time through only--------------------------||
D|-12/14--14-14-14-14-|--14/16--16-16-16-16---------------------------------||
A|-14/16--16-16-16-16-|--16/17--17-17-17-17---------------------------------||
E|--------------------|-----------------------------------------------------||

Turnaround x 3 
G|---------------------------------------------------------------------------|
D|--9---9--9--9--9---9/12-12-12-12-12--12/14--14-14-14-14-14/16--16-16-16-16-|
A|-10--10-10-10-10--10/14-14-14-14-14--14/16--16-16-16-16-16/17--17-17-17-17-|
E|---------------------------------------------------------------------------|

Transition back to Ending
G|---------------------------------------------------------------------------|
D|-16-16-16-16-16-16--11--12---9---9--9--9--9---9--9--9--9---9--9--9--9--11--|
A|-17-17-17-17-17-17--12--14--10--10-10-10-10--10-10-10-10--10-10-10-10--12--|
E|---------------------------------------------------------------------------|

G|---------------------------------------------------------------------------|
D|-16--16-16-16-16--16-16-16-16--16-16-16--11--12---9---9--9--9--9-----------|
A|-17--17-17-17-17--17-17-17-17--17-17-17--12--14--10--10-10-10-10-----------|
E|---------------------------------------------------------------------------|

G|---------------------------------------------------------------------------|
D|--9--9--9--9---9--9--9--9--7--0--------------------------------------------|
A|-10-10-10-10--10-10-10-10--9--9--------------------------------------------|
E|---------------------------------------------------------------------------|

| /  slide up
| \  slide down
| h  hammer-on
| p  pull-off
| ~  vibrato
| +  harmonic
| x  Mute note
===============================================================================
Добавлено: 06.05.2016
Другие материалы по этой песне:
  • Аккорды и текст

Страница создана 06.05.2016
http://primanota.ru/testa-rosa/moon-rocks-chords.htm
Привет, Гость.
Предлагаем пройти революционный курс по гитаре.
Подарок от PrimaNota.Ru, забирай!