PrimaNota.ru - самый крупный в мире бесплатный архив песенных текстов, аккордов, табулатур и нот


Testa Rosa - Lost Loon - бас-таба, видео

Регистрация Запомнить меня
Войти через:  Facebook Google Twitter Vk Yandex Mail.ru

Testa Rosa - Lost Loon - бас-таба, видео

Печатать
Просмотров: 32
-------------------------------------------------------------------------------
                                Lost Loon - Testa Rosa
-------------------------------------------------------------------------------
http://testarosamusic.com/
Tabbed by: Hanoihancock 

All notes palm-muted and plucked with thumb

Drums Alone x 1
Verse x 4 (Drums/Bass x 1 enter Guitar x 1 then Vox x 2) 
G|---------------------------------------------------------------------------|
D|---------------------------------------------------------------------------|
A|-------------------------------5-5-5-5-5-5-5-5-4-4-4-4/7-7-7-7-------------|
E|-5-5-5-5-5-5-5-2-2-2-2-2-2-2-2---------------------------------------------|

G|---------------------------------------------------------------------------|
D|---------------------------------------------------------------------------|
A|-------------------------------5-5-5-5-5-5-5-5-4-4-4-4-4-4-4-4-------------|
E|-5-5-5-5-5-5-5-2-2-2-2-2-2-2-2---------------------------------------------|

Chorus
G|---------------------------------------------------------------------------|
D|---------------------------------------------------------------------------|
A|-2--2-2--2--2-2--2------------------2--2-2--2--2-2--/7-7\5-5\4-4-2h4p2-----|
E|--------------------2--2-2--2--2-2------------------------------------4/---|

Verse x 3 (Guitar Solo x 1 then Vox x 2) 
G|---------------------------------------------------------------------------|
D|---------------------------------------------------------------------------|
A|-------------------------------5-5-5-5-5-5-5-5-4-4-4-4/7-7-7-7-------------|
E|-5-5-5-5-5-5-5-2-2-2-2-2-2-2-2---------------------------------------------|

G|---------------------------------------------------------------------------|
D|---------------------------------------------------------------------------|
A|-------------------------------5-5-5-5-5-5-5-5-4-4-4-4-4-4-4-4-------------|
E|-5-5-5-5-5-5-5-2-2-2-2-2-2-2-2---------------------------------------------|

Chorus
G|---------------------------------------------------------------------------|
D|---------------------------------------------------------------------------|
A|-2--2-2--2--2-2--2------------------2--2-2--2--2-2--/7-7\5-5\4-4-2h4p2-----|
E|--------------------2--2-2--2--2-2------------------------------------4/---|

Key Change Verse x 4 (Guitar Solo x 1 then Vox x 1 then Oohs x 2 and fade) 
G|---------------------------------------------------------------------------|
D|---------------------------------------------------------------------------|
A|-------------------------------7-7-7-7-7-7-7-7-6-6-6-6/9-9-9-9-------------|
E|/7-7-7-7-7-7-7-4-4-4-4-4-4-4-4---------------------------------------------|

Key Change Verse x 4  
G|---------------------------------------------------------------------------|
D|---------------------------------------------------------------------------|
A|-------------------------------7-7-7-7-7-7-7-7-6-6-6-6-6-6-6-6-6-----------|
E|/7-7-7-7-7-7-7-4-4-4-4-4-4-4-4---------------------------------------------|

| /  slide up
| \  slide down
| h  hammer-on
| p  pull-off
| ~  vibrato
| +  harmonic
| x  Mute note
===============================================================================
Добавлено: 06.05.2016
Другие материалы по этой песне:
  • Аккорды и текст

Страница создана 06.05.2016
http://primanota.ru/testa-rosa/lost-loon-chords.htm
Привет, Гость.
Предлагаем пройти революционный курс по гитаре.
Подарок от PrimaNota.Ru, забирай!