PrimaNota.ru - самый крупный в мире бесплатный архив песенных текстов, аккордов, табулатур и нот


Testa Rosa - Leave It On The Side Of The Road - бас-таба, видео

Регистрация Запомнить меня
Войти через:  Facebook Google Twitter Vk Yandex Mail.ru

Testa Rosa - Leave It On The Side Of The Road - бас-таба, видео

Печатать
Просмотров: 75
-------------------------------------------------------------------------------
                    Leave it on the Side of the Road - Testa Rosa
-------------------------------------------------------------------------------
http://testarosamusic.com/
Tabbed by: Hanoihancock 

Intro x 2 (Guitar x 1 then Guitar + Drums x 1) 

Verse x 6 (Instrumental x 2 then Vox x 4)  1st-5th          6th                                      
G|------------------------------------|---------------|----------------------|
D|------------------------------------|---------------|----------------------|
A|------------------------------------|---------------|----------------------|
E|-6/8-8-8-8---6/8-8-8---6/8-8-8-8--8-|-4-4-4-4/6-6-6-|-4-4-4-4-4-4-4--------|

Chorus
G|---------------------------------------------------------------------------|
D|------------------------------5-5--5-5-5-----------------------------------|
A|-6--6-6--6-----------------3/5--------5--5/6--6-6--6-----------------------|
E|----------4--4-4--4-3--3-3--------------------------4--4-4--4-3-3-3-3-(x16)|

Verse x 6 (Instrumental x 2 then Vox x 4)  1st-5th          6th                                      
G|------------------------------------|---------------|----------------------|
D|------------------------------------|---------------|----------------------|
A|------------------------------------|---------------|----------------------|
E|-6/8-8-8-8---6/8-8-8---6/8-8-8-8--8-|-4-4-4-4/6-6-6-|-4-4-4-4-4-4-4--------|

Chorus
G|---------------------------------------------------------------------------|
D|------------------------------5-5--5-5-5-----------------------------------|
A|-6--6-6--6-----------------3/5--------5--5/6--6-6--6-----------------------|
E|----------4--4-4--4-3--3-3--------------------------4--4-4--4-3-3-3-3-(x16)|

Bridge 
G|---------------------------------------------------------------------------|
D|-------6-------8------------------------6-------8--------------------------|
A|----4/6-6---6h8-8--------------------4/6-6---6h8-8-------------------------|
E|-4-------6-------3-3-3-3-3-3(x16)-4-------6-------3-3-3-3-3-3(x16)-6/------|

OUtro Verse x 6 (p x 2, m x 2, f x 2)
G|----------------------------------------------------|
D|----------------------------------------------------|
A|----------------------------------------------------|
E|-/8-8-8-8---6/8-8-8---6/8-8-8-8--8--4-4-4-4/6-6-6-6-|

| /  slide up
| \  slide down
| h  hammer-on
| p  pull-off
| ~  vibrato
| +  harmonic
| x  Mute note
===============================================================================
Добавлено: 06.05.2016
Другие материалы по этой песне:
  • Аккорды и текст

Страница создана 06.05.2016
http://primanota.ru/testa-rosa/leave-it-on-side-of-road-chords.htm
Привет, Гость.
Предлагаем пройти революционный курс по гитаре.
Подарок от PrimaNota.Ru, забирай!