PrimaNota.ru - самый крупный в мире бесплатный архив песенных текстов, аккордов, табулатур и нот


Testa Rosa - Irvine - бас-таба, видео

Регистрация Запомнить меня
Войти через:  Facebook Google Twitter Vk Yandex Mail.ru

Testa Rosa - Irvine - бас-таба, видео

Печатать
Просмотров: 33
-------------------------------------------------------------------------------
                                 Irvine - Testa Rosa
-------------------------------------------------------------------------------
http://testarosamusic.com/
Tabbed by: Hanoihancock 

Intro (Guitar Alone 4 Measures Then Enter Bass/Drums/Keys 4 measures)  
G|---------------------------------------------------------------------------|
D|-/9--9--9--9-9-9--9--9--9--9-9-9--9--9--9--9-9-9--9--9--9--9-9-9-----------|
A|---------------------------------------------------------------------------|
E|---------------------------------------------------------------------------|

Verse Intro x 2 (Oohs & Ahs)
G|---------------------------------------------------------------------------|
D|---------------------------------------------------------------------------|
A|---------------------------------------------------------------------------|
E|-/7-7-7-0-7--7/9\7/9-7-7-7-0-7--2/7-7-7-0-7--7/9\7/9-7-7-7-0-7--3/5/-------|

Verse Vox x 2 (Stacato)                                            1st   2nd   
G|---------------------------------------------------------------|-----|-----|
D|---------------------------------------------------------------|-----|-----|
A|---------------------------------------------------------------|-----|-----|
E|-/7-7-7-0-7--7/9\7/9-7-7-7-0-7--2/7-7-7-0-7--7/9\7/9-7-7-7-0-7-|3/5/-|-15\-|

Chorus
G|---------------------------------------------------------------------------|
D|---------------------------------------------------------------------------|
A|---------------------------------------------------------------------------|
E|-\3--3--0-2-3--5--5--0-3-5--2--2--0-1-2--3--3--0-2-3--0-2-3--3--0-2-3------|

G|---------------------------------------------------------------------------|
D|---------------------------------------------------------------------------|
A|---------------------------------------------------------------------------|
E|-5--5--0-3-5--2--2--0-1-2--3--3--3/----------------------------------------|

Verse 
G|---------------------------------------------------------------------------|
D|---------------------------------------------------------------------------|
A|---------------------------------------------------------------------------|
E|-/7-7-7-0-7--7/9\7/9-7-7-7-0-7--2/7-7-7-0-7--7/9\7/9-7-7-7-0-7--3/5/-------|

Verse Vox x 4 (Staccato)                                         1st-3rd 4th
G|---------------------------------------------------------------|-----|-----|
D|---------------------------------------------------------------|-----|-----|
A|---------------------------------------------------------------|-----|-----|
E|-/7-7-7-0-7--7/9\7/9-7-7-7-0-7--2/7-7-7-0-7--7/9\7/9-7-7-7-0-7-|3/5/-|-15\-|

Chorus x 2
G|---------------------------------------------------------------------------|
D|---------------------------------------------------------------------------|
A|---------------------------------------------------------------------------|
E|-\3--3--0-2-3--5--5--0-3-5--2--2--0-1-2--3--3--0-2-3--0-2-3--3--0-2-3------|

                                     1st           2nd   
G|--------------------------|------------------|-----------------------------|
D|--------------------------|------------------|-------------/9--------------|
A|--------------------------|------------------|-----------------------------|
E|-5--5--0-3-5--2--2--0-1-2-|-3--3--0-2-3--0-2-|-3-3-3-3-3-3/----------------|

Outro Climb 
G|---------------------------------------------------------------------------|
D|---------------------------------------------------------------------------|
A|-7\-2--2--2--2--2-2-2/4-4--4--4--4-4-4/5--5--5--5--5-5-5/777777777777777---|
E|---------------------------------------------------------------------------|

Outro Verse 
G|---------------------------------------------------------------------------|
D|---------------------------------------------------------------------------|
A|---------------------------------------------------------------------------|
E|-/7-7-7-0-7--7/9\7/9-7-7-7-0-7--2/7-7-7-0-7--7/9\7/9-7-7-7-0-7--3/5/-------|

G|---------------------------------------------------------------------------|
D|---------------------------------------------------------------------------|
A|---------------------------------------------------------------------------|
E|-/7-7-7-0-7--7/9\7/9-7-7-7-0-7--2/7-7-7-0-7--7/9\7--3-3-3------------------|

| /  slide up
| \  slide down
| h  hammer-on
| p  pull-off
| ~  vibrato
| +  harmonic
| x  Mute note
===============================================================================
Добавлено: 06.05.2016
Другие материалы по этой песне:
  • Аккорды и текст

Страница создана 06.05.2016
http://primanota.ru/testa-rosa/irvine-chords.htm
Привет, Гость.
Предлагаем пройти революционный курс по гитаре.
Подарок от PrimaNota.Ru, забирай!