PrimaNota.ru - самый крупный в мире бесплатный архив песенных текстов, аккордов, табулатур и нот


Testa Rosa - Golden Boat - бас-таба, видео

Регистрация Запомнить меня
Войти через:  Facebook Google Twitter Vk Yandex Mail.ru

Testa Rosa - Golden Boat - бас-таба, видео

Печатать
Просмотров: 45
-------------------------------------------------------------------------------
                               Golden Boat - Testa Rosa
-------------------------------------------------------------------------------
http://testarosamusic.com/
Tabbed by: Hanoihancock 

Intro Verse (Guitar on F for 6 Measures Then Enter Bass/Drums for 8 Measures)
G|---------------------------------------------------------------------------|
D|---------------------------------------------------------------------------|
A|------------/8-8-5--5-5--5---5---5\-0---0-3-1--1-1--1-1/3\1----------------|
E|-1--1-1--1----------------3-5---------------------------------1--1-1--1----|

Verse (Vox) x 2
G|---------------------------------------------------------------------------|
D|---------------------------------------------------------------------------|
A|--------------/5-----5---5---5\-0---0-3-1--1-1--1-1/3\1--------------------|
E|-1--1-1--1------------3-5---------------------------------1--1-1--1-1--1-1-|

Chorus
G|---------------------------------------------------------------------------|
D|---------------------------------------------------------------------------|
A|-----------/8-8-5--5-5--5---5--5-5---5---0--0-0--0-3-1--1-1--1-1/3\1-------|
E|-1--1-1--1---------------3-5------3-5-1-3----------------------------1(x7)-|

Verse (Vox) x 2
G|---------------------------------------------------------------------------|
D|---------------------------------------------------------------------------|
A|--------------/5-----5---5---5\-0---0-3-1--1-1--1-1/3\1--------------------|
E|-1--1-1--1------------3-5---------------------------------1--1-1--1-1--1-1-|

Verse Build
G|---------------------------------------------------------------------------|
D|---------------------------------------------------------------------------|
A|-----------/8-8-5--5-5--5---5--5-5---5---0--0-0--0-3-1--1-1--1-1/3\1-------|
E|-1--1-1--1---------------3-5------3-5-1-3----------------------------1(X7)-|

G|------------------------------7--7---7-----2--2--2-------------------------|
D|-------------------------------7--7---------2--2---------------------------|
A|-----------/8-8-5--5-5--5---5---5--5-----0---0--0-0-3-1--1-1--1-1/3\1------|
E|-1--1-1--1---------------3-5----------1-3----------------------------1(x24)|

Bridge x 2
G|-----------------------------------------------------------------3---------|
D|--------------------------------------------------------------------3------|
A|-3--3---3--3---3--3---3---3---0--0---0--0---0--0---0---0---1----1------1---|
E|-----1-3----1-3----1-3-1-3-0-3----0-3----0-3----0-3-0-3-0-3----------------|

                       (1st)                      (2nd)  
G|--3----|----------------------------------|---------------|
D|-----3-|----------------------------------|---------------|
A|-1-----|----------------------------------|---------------|
E|-------|-1-1-1-1-(x12)-/13-13-13-13-(x12)-|-1-1-1-1-(x22)-|

Outro
G|---------------------------------------------------------------------------|
D|---------------------------------------------------------------------------|
A|---------------/8-8-5---------------0---------------1----------------------|
E|-1-------------------------------------------------------------------1-----|

| /  slide up
| \  slide down
| h  hammer-on
| p  pull-off
| ~  vibrato
| +  harmonic
| x  Mute note
===============================================================================
Добавлено: 06.05.2016
Другие материалы по этой песне:
  • Аккорды и текст

Страница создана 06.05.2016
http://primanota.ru/testa-rosa/golden-boat-chords.htm
Привет, Гость.
Предлагаем пройти революционный курс по гитаре.
Подарок от PrimaNota.Ru, забирай!