PrimaNota.ru - самый крупный в мире бесплатный архив песенных текстов, аккордов, табулатур и нот


Testa Rosa - Fireman At The Well - бас-таба, видео

Регистрация Запомнить меня
Войти через:  Facebook Google Twitter Vk Yandex Mail.ru

Testa Rosa - Fireman At The Well - бас-таба, видео

Печатать
Просмотров: 96
Уроки эстрадного вокала в Санкт-Петербурге
-------------------------------------------------------------------------------
                          Fireman at the Well - Testa Rosa
-------------------------------------------------------------------------------
http://testarosamusic.com/
Tabbed by: Hanoihancock 

Intro x 2
G|----------------------------------------------|
D|-------------------7-------------------7-7----|
A|-5--5-5--5-------/7-7-5--5-5--5-----5h7---7-5-|
E|-----------5-5--5---------------5-5-----------|

Verse x 2
G|---------------------------------------------------------------------------|
D|-------------------7-------------------------------------------------------|
A|-5--5-5--5-------/7-7-5--5-5--5--------------------------------------------|
E|-----------5-5--5---------------5-5--------5\-3-3-3-3-(x16)-5-5-5-5-(x16)--|

Chorus
G|---------------------------------------------------------------------------|
D|---------------------------------------------------------------------------|
A|/5-5-5/7\5-0-2-2--2-0-2--------2-0--0-0-/5-5-5/7\5-0-2--2-2-0-2--------2---|
E|-----------------------3--3-3-3--------------------------------3--3-3-3----|

G|-------|
D|-------|
A|-0-0-0-|
E|-------|

Verse
G|---------------------------------------------------------------------------|
D|-------------------7-------------------------------------------------------|
A|-5--5-5--5-------/7-7-5--5-5--5--------------------------------------------|
E|-----------5-5--5---------------5-5--------5\-3-3-3-3-(x16)-5-5-5-5-(x16)--|

Bridge
G|---------------------------------------------------------------------------|
D|---------------------------0--0-0------------------------------------------|
A|--------------0--0-0-----0--------4-2--2-2-0----------------0--0-0----0----|
E|-3--3-3-2-3-2--------2-3-----------------------3--3-3-2-3-2--------2-3-----|

G|---------------------------------------------------------------------------|
D|-----------------------------------------0--0-0----------------------------|
A|----------------------------0--0-0-----0--------4-2--2-2-0-----------------|
E|-2-2-2-2-(x16)-3--3-3-2-3-2--------2-3-----------------------3--3-3-2-3-2--|

G|-------------------------------|
D|-------------0--0-0--0---------|
A|-0--0-0----0-----------0-0-0-0-|
E|--------2-3--------------------|

Chorus x 4 to ritard on A
G|---------------------------------------------------------------------------|
D|---------------------------------------------------------------------------|
A|/5-5-5/7\5-0-2-2--2-0-2--------2-0--0-0-/5-5-5/7\5-0-2--2-2-0-2--------2---|
E|-----------------------3--3-3-3--------------------------------3--3-3-3----|

  1st-3rd             4th
G|-------|-------------------------------|
D|-------|-------------------------------|
A|-0-0-0-|-0-0-0-0-0-0-0-0-0-0-0-0-0-0---|
E|-------|-------------------------------|


Slow Bridge Outro
G|------------------------------------4-4--4---------------------------------|
D|----------------------0--0-0-----2h4------4--------------------------------|
A|--------------0--0-0---------4-2-----------2-0-------------0--0-0--/5--5---|
E|-3--2h3-3--2h3---------------------------------3--2h3-3-2h3----------------|

G|------7-7-7------------------------------------------4-4--4----------------|
D|---5h7-----7---------------------------0--0-0-----2h4------4------------0--|
A|-5----------5--5-0--------------0--0-0--------4-2-----------2-0-----0------|
E|-------------------3--2h3-3--2h3--------------------------------3----------|

| /  slide up
| \  slide down
| h  hammer-on
| p  pull-off
| ~  vibrato
| +  harmonic
| x  Mute note
===============================================================================
Добавлено: 18.04.2016
Другие материалы по этой песне:
  • Аккорды и текст

Страница создана 18.04.2016
http://primanota.ru/testa-rosa/fireman-at-well-chords.htm
Привет, Гость.
Предлагаем пройти революционный курс по гитаре.
Подарок от PrimaNota.Ru, забирай!