PrimaNota.ru - самый крупный в мире бесплатный архив песенных текстов, аккордов, табулатур и нот


Testa Rosa - Castaways - бас-таба, видео

Регистрация Запомнить меня
Войти через:  Facebook Google Twitter Vk Yandex Mail.ru

Testa Rosa - Castaways - бас-таба, видео

Печатать
Просмотров: 71
Уроки эстрадного вокала в Санкт-Петербурге
-------------------------------------------------------------------------------
                               Castaways - Testa Rosa
-------------------------------------------------------------------------------
http://testarosamusic.com/
Tabbed by: Hanoihancock 

Intro x 2
G|----------------------------------------------------------------------------|
D|----------------------------------------------------------------------------|
A|---------------/7-4-7-----------------/7-4-7---------------2h4p2------------|
E|-0--------------------2----------------------2------------------4-0---------|

Verse x 3 (1x Instrumental then 2x Vox) 
G|----------------------------------------------------------------------------|
D|----------------------------------------------------------------------------|
A|-----/7-4-7----/7-4-7-----/7-4-7-----------------/7-4-7-----2h4p2-----------|
E|-0-0-------0-0--------2-2--------2-2------14\2-2--------2-2------4----------|

G|----------------------------|
D|-------------------2-2-2p0--|
A|-----/7-4-7-----0h2-------2-|
E|-0-0-------0-0--------------|

Chorus x 2 
G|----------------------------------------------------------------------------|
D|----------------------------------------------------------------------------|
A|/4-4-------4-4-----2----------2---------------------------------------------|
E|-----0-2-4-----0-2---4-4--0-2---4--4-4-3--2-2--0-2-4--2-2--0-2-4--0-0--0-0--|

Verse x 3 (1x Guitar Solo then 2x Vox) 
G|----------------------------------------------------------------------------|
D|----------------------------------------------------------------------------|
A|-----/7-4-7----/7-4-7-----/7-4-7-----------------/7-4-7-----2h4p2-----------|
E|-0-0-------0-0--------2-2--------2-2------14\2-2--------2-2------4----------|

G|----------------------------|
D|-------------------2-2-2p0--|
A|-----/7-4-7-----0h2-------2-|
E|-0-0-------0-0--------------|

Chorus x 2
G|----------------------------------------------------------------------------|
D|----------------------------------------------------------------------------|
A|/4-4-------4-4-----2----------2---------------------------------------------|
E|-----0-2-4-----0-2---4-4--0-2---4--4-4-3--2-2--0-2-4--2-2--0-2-4--0-0--0-0--|

Outro x 3                                       End on E 3rd time through
G|-------2--2---------------------------------2--2----------------------------|
D|----0h2-----2----------2-----2-2-2p0-----0h2-----2----------2-----2-2-2p0---|
A|-0------------0-----0h2---0h2-------2-0------------0-----0h2---0h2-------2--|
E|----------------0------------------------------------0----------------------|

| /  slide up
| \  slide down
| h  hammer-on
| p  pull-off
| ~  vibrato
| +  harmonic
| x  Mute note
===============================================================================
Добавлено: 06.05.2016
Другие материалы по этой песне:
  • Аккорды и текст

Страница создана 06.05.2016
http://primanota.ru/testa-rosa/castaways-chords.htm
Привет, Гость.
Предлагаем пройти революционный курс по гитаре.
Подарок от PrimaNota.Ru, забирай!