PrimaNota.ru - самый крупный в мире бесплатный архив песенных текстов, аккордов, табулатур и нот


Testa Rosa - Bad Wolf - бас-таба, видео

Регистрация Запомнить меня
Войти через:  Facebook Google Twitter Vk Yandex Mail.ru

Testa Rosa - Bad Wolf - бас-таба, видео

Печатать
Просмотров: 30
-------------------------------------------------------------------------------
                             Bad Wolf - Testa Rosa
-------------------------------------------------------------------------------
http://testarosamusic.com/
Tabbed by: Hanoihancock 

Guitar Alone x 1/ Intro x 1
G|---------------------------------------------------------------------------|
D|----------------------------------------------------------7h8p7--7---------|
A|----------------------------------3/5-5-5-3-0-----------0------10-10-8-----|
E|-3/10-10-1-3-1-3-3/10-10--1-3-1-3-------------1-3-1-3-3--------------------|

Verse x 3 
G|---------------------------------------------------------------------------|
D|----------------------------------------------------------7h8p7--7---------|
A|----------------------------------3/5-5-5-3-0-----------0------10-10-8-----|
E|-3/10-10-1-3-1-3-3/10-10--1-3-1-3-------------1-3-1-3-3--------------------|

4th Verse Alternate Ending on F 
G|-------------------------------------------------------|-------------------|
D|-------------------------------------------------------|------3------3-----|
A|----------------------------------3/5-5-5-3-0----------|---/3---3--/3--3---|
E|-8/10-10-1-3-1-3-3/10-10--1-3-1-3-------------1-3-1-3-3|-1-------1-------1-|

Chorus x 1
G|------3-3/5\3------3-3/5\3-------------------------------3-3/5\3-----------|
D|--1h3--------3--1h3-------3------3----3------3----3---1h3-------3----------|
A|-1-------------1--------------1h3--1h3-3--1h3--1h3-3-1------------00000000-|
E|----------------------------1-----------1----------------------------------|

Solo Verse x 1
G|---------------------------------------------------------------------------|
D|----------------------------------------------------------7h8p7--7---------|
A|----------------------------------3/5-5-5-3-0-----------0------10-10-8-----|
E|-3/10-10-1-3-1-3-3/10-10--1-3-1-3-------------1-3-1-3-3--------------------|

Verse x 3 
G|---------------------------------------------------------------------------|
D|----------------------------------------------------------7h8p7--7---------|
A|----------------------------------3/5-5-5-3-0-----------0------10-10-8-----|
E|-3/10-10-1-3-1-3-3/10-10--1-3-1-3-------------1-3-1-3-3--------------------|

4th Verse Alternate Ending on F 
G|-------------------------------------------------------|-------------------|
D|-------------------------------------------------------|------3------3-----|
A|----------------------------------3/5-5-5-3-0----------|---/3---3--/3--3---|
E|-8/10-10-1-3-1-3-3/10-10--1-3-1-3-------------1-3-1-3-3|-1-------1-------1-|

Chorus x 1
G|------3-3/5\3------3-3/5\3-------------------------------3-3/5\3-----------|
D|--1h3--------3--1h3-------3------3----3------3----3---1h3-------3----------|
A|-1-------------1--------------1h3--1h3-3--1h3--1h3-3-1------------00000000-|
E|----------------------------1-----------1----------------------------------|

chorus into Outro x 4 
G|-------------------------------------------|
D|-----3----3------3-------------------------|
A|--1h3--1h3-3--1h3--3-----------------------|
E|-1-----------1-------1-3-4--4--4/6-3--3--3-|


| /  slide up
| \  slide down
| h  hammer-on
| p  pull-off
| ~  vibrato
| +  harmonic
| x  Mute note
===============================================================================
Добавлено: 06.05.2016
Другие материалы по этой песне:
  • Аккорды и текст

Страница создана 06.05.2016
http://primanota.ru/testa-rosa/bad-wolf-chords.htm
Привет, Гость.
Предлагаем пройти революционный курс по гитаре.
Подарок от PrimaNota.Ru, забирай!