PrimaNota.ru - самый крупный в мире бесплатный архив песенных текстов, аккордов, табулатур и нот


Testa Rosa - Baby Dont You Know - бас-таба, видео

Регистрация Запомнить меня
Войти через:  Facebook Google Twitter Vk Yandex Mail.ru

Testa Rosa - Baby Dont You Know - бас-таба, видео

Печатать
Просмотров: 74
Уроки эстрадного вокала в Санкт-Петербурге
-------------------------------------------------------------------------------
                          Baby Don't You Know - Testa Rosa
-------------------------------------------------------------------------------
http://testarosamusic.com/
Tabbed by: Hanoihancock 

Intro (single Note Hangs First Time Through) 
G|---------------------------------------------------------------------------|
D|---------------------------------------------------------------------------|
A|-4---------------------------4------/8-------------------------------------|
E|--------1------2-----------------------------------2-----------------------|

Verse x 3 (1x Intro then 2x Vox)
G|---------------------------------------------------------------------------|
D|-----------------------4-4-4-----------------------------------------------|
A|-4-4-4-------------2/4-------4-4-4--/8-8-8---------------------------------|
E|--------1-1-1--2-2--------------------------2-2--1-2-2--1-2-1--------------|

Chorus x 2                                                   1st      2nd
G|--------------------------------------------------------|-------|----------|
D|----------------------------3-3-----------4-4-----------|-6-6-6-|-66666666-|
A|-1-1-1--1-1-1-3-1-------1/3-----3-----2/4-----4-----4/6-|-------|----------|
E|------------------4-1-1-----------2-2-----------4-4-----|-------|----------|

Verse x 3 (1x Guitar Solo then 2x Vox) 
G|---------------------------------------------------------------------------|
D|-----------------------4-4-4-----------------------------------------------|
A|-4-4-4-------------2/4-------4-4-4--/8-8-8---------------------------------|
E|--------1-1-1--2-2--------------------------2-2--1-2-2--1-2-1--------------|

Chorus x 2                                                   1st      2nd
G|--------------------------------------------------------|-------|----------|
D|----------------------------3-3-----------4-4-----------|-6-6-6-|-66666666-|
A|-1-1-1--1-1-1-3-1-------1/3-----3-----2/4-----4-----4/6-|-------|----------|
E|------------------4-1-1-----------2-2-----------4-4-----|-------|----------|

Key Change x 2 
G|---------------------------------------------------------------------------|
D|---------------------------------------------------------------------------|
A|-6-6-6-6-6-6-6-6-6-6-6-6-6/8\6/8/10-10-10-10-10-10-10-10-10-10-10-10-------|
E|---------------------------------------------------------------------------|

G|---------------------------------------------------------------------------|
D|--------------------------6-6-6-6-6-6-6----------------8-8-8-8-8-8-8-------|
A|-8/10\8/10--------------/6-------------6-------------/8-------------8------|
E|-----------4-4-4-4-4-4-4----------------6-6-6-6-6-6-6----------------------|

Key Change Variation x 2  (Hammer on/off instead of slide)
G|---------------------------------------------------------------------------|
D|---------------------------------------------------------------------------|
A|-6-6-6-6-6-6-6-6-6h8-8-6h8-8-6h8/10-10-10-10-10-10-10-10-10p8-8-10p8-8-10p8|
E|---------------------------------------------------------------------------|

Skip 2nd Time                                                     
G|---------------------------------------------------------------------------|
D|----------------6-6-6-6-6-6-6----------------8-8-8-8-8-8-8-----------------|
A|--------------/6-------------6-------------/8-------------8----------------|
E|-4-4-4-4-4-4-4----------------6-6-6-6-6-6-6--------------------------------|

Play 2nd Time Into Ending
G|---------------------------------------------------------------------------|
D|---------------------------------------------------------------------------|
A|---------------------------------------------------------------------------|
E|-4-4-4-4-4-4-4-4-4-4-4-4-4-4-4-4-7--7--7--7--9--9--9--9--11----------------|


| /  slide up
| \  slide down
| h  hammer-on
| p  pull-off
| ~  vibrato
| +  harmonic
| x  Mute note
===============================================================================
Добавлено: 06.05.2016
Другие материалы по этой песне:
  • Аккорды и текст

Страница создана 06.05.2016
http://primanota.ru/testa-rosa/baby-dont-you-know-chords.htm
Привет, Гость.
Предлагаем пройти революционный курс по гитаре.
Подарок от PrimaNota.Ru, забирай!