PrimaNota.ru - самый крупный в мире бесплатный архив песенных текстов, аккордов, табулатур и нот


Tesla - So Divine - таба, видео

Регистрация Запомнить меня
Войти через:  Facebook Google Twitter Vk Yandex Mail.ru

Tesla - So Divine - таба, видео

Печатать
Просмотров: 164
-------------------------------------------------------------------------------
                             SO DIVINE - Tesla
-------------------------------------------------------------------------------
Tabbed by: Guytarist38
E-mail: guybr@hotmail.fr

Legend

L - tied note
x - dead note
h - hammer on/pull off
b - bend
s - slide
~ - vibrato
g - ghost note
> - accentuated note
t - trill
M - palm mute
. - staccato
P - popping (bass)
S - slapping (bass)
+ - tapping
W - wide vibrato
< - fade in
w - whammy bar
= - tremolo picking
v - brush up
^ - brush down
V - pick stroke up
n - pick stroke down


INTRO (12 string guitar, Drop D, Capo 2nd fret)


E |----------------------------|----------------------------|   X 2
B |----------------------------|----------------------------|
G |----------------------------|----------------------------|
D |--------0-----------0-------|--------0-----------0-------|
A |-----0-----------0-----0----|-----0-----------0-----0----|
D |--0-------2L-(2)------------|--3--------5----------------|


VERSE 1 (12 string guitar, Drop D)


E |----------------------------|----------------------------|   X 8
B |----------------------------|----------------------------|
G |----------------------------|----------------------------|
D |--------0-----------0-------|--------0-----------0-------|
A |-----0-----------0-----0----|-----0-----------0-----0----|
D |--0-------2L-(2)------------|--3--------5----------------|

BRIDGE 1 (12 string guitar, Drop D)


E |----------------------------|----------------------------|   x3
B |----------------------------|----------------------------|
G |----------------------------|----------------------------|
D |--------0--------0----------|--------0--------0----------|
A |-----0--------0-----0-------|-----0-----0--------0-------|
D |--7--------7-----------5L---|-(5)----------5-------------|


                       ^
E |----------------------------|---------|
B |----------------------------|---------|
G |-----------------------0----|--(0)----|
D |--------2--------2-----2----|--(2)----|
A |-----2--------2-----2--3----|--(3)----|
D |--7--------7-----------2----|--(2)----|


BREAK


        Guitar 1 (Standart tunning, overdrive)

        E |------------------|-----------------|------------------|------------------|  X2
        B |------------------|-----------------|------------------|------------------|
        G |---------------7L-|-(7)-------------|---------------9L-|-(9)--------------|
        D |-4-4-4-4---7---7L-|-(7)-------------|-7-7-7-7---7---9L-|-(9)--------------|
        A |-4-4-4-4---7---5L-|-(5)-------------|-7-7-7-7---5---7L-|-(7)--------------|
        E |-2-2-2-4---5------|-----------------|-5-5-5-5---5------|------------------|

        Guitar 2 (Standart tunning, overdrive)

        E |------------------|-----------------|------------------|------------------|
        B |------------------|-----7-7-9-9-7-7-|------------------|----9-9-10-10-9-9-|
        G |------------------|-----7-7-7-7-7-7-|------------------|----9-9-9--9--9-9-|
        D |------------------|-----------------|------------------|------------------|
        A |------------------|-----------------|------------------|------------------|
        E |------------------|-----------------|------------------|------------------|


CHORUS (both guitars)

E |----------------------------|----------------------------|
E |----------------------------|----------------------------|
G |-----------------------7L---|-(7)-7--7--7--7--7--7--7----|
D |--4--4--4--4--4--7--7--7L---|-(7)-7--7--7--7--7--7--7----|
A |--4--4--4--4--4--7--7--5L---|-(5)-5--5--5--5--5--5--5----|
E |--2--2--2--4--4--5--5-------|----------------------------|


E |----------------------------|----------------------------|
B |----------------------------|----------------------------|
G |-----------------------9L---|-(9)-9--9--9--9--9--9--9----|
D |--7--7--7--7--7--7--7--9L---|-(9)-9--9--9--9--9--9--9----|
A |--7--7--7--7--7--5--5--7L---|-(7)-7--7--7--7--7--7--7----|
E |--5--5--5--5--5--5--5-------|----------------------------|   X 2


TRANSITION


        Guitar 1

        E |-----|-----|-----|-----|
        B |-----|-----|-----|-----|
        G |-----|-----|-----|-----|
        D |--4L-|-(4)-|-(4)-|-(4)-|
        A |--4L-|-(4)-|-(4)-|-(4)-|
        E |--2L-|-(2)-|-(2)-|-(2)-|


        Guitar 2

        E |-----|----------------------|------|-----|
        B |-----|----------------------|------|-----|
        G |-----|-----2--4----2--4b6---|--2L--|-(2)-|
        D |-----|--4-------------------|------|-----|
        A |-----|----------------------|------|-----|
        E |-----|----------------------|------|-----|


        12 String guitar, Drop D, Capo 2nd fret

        E |----------------------------|----------------------------|   X 2
        B |----------------------------|----------------------------|
        G |----------------------------|----------------------------|
        D |--------0-----------0-------|--------0-----------0-------|
        A |-----0-----------0-----0----|-----0-----------0-----0----|
        D |--0-------2L-(2)------------|--3--------5----------------|


VERSE 2 (12 string guitar, Drop D)


E |----------------------------|----------------------------|   X 8
B |----------------------------|----------------------------|
G |----------------------------|----------------------------|
D |--------0-----------0-------|--------0-----------0-------|
A |-----0-----------0-----0----|-----0-----------0-----0----|
D |--0-------2L-(2)------------|--3--------5----------------|

BRIDGE 2 (12 string guitar, Drop D)


E |----------------------------|----------------------------|   x3
B |----------------------------|----------------------------|
G |----------------------------|----------------------------|
D |--------0--------0----------|--------0--------0----------|
A |-----0--------0-----0-------|-----0-----0--------0-------|
D |--7--------7-----------5L---|-(5)----------5-------------|


                       ^
E |----------------------------|---------|
B |----------------------------|---------|
G |-----------------------0----|--(0)----|
D |--------2--------2-----2----|--(2)----|
A |-----2--------2-----2--3----|--(3)----|
D |--7--------7-----------2----|--(2)----|


BREAK


        Guitar 1 (Standart tunning, overdrive)

        E |------------------|-----------------|------------------|------------------|  X2
        B |------------------|-----------------|------------------|------------------|
        G |---------------7L-|-(7)-------------|---------------9L-|-(9)--------------|
        D |-4-4-4-4---7---7L-|-(7)-------------|-7-7-7-7---7---9L-|-(9)--------------|
        A |-4-4-4-4---7---5L-|-(5)-------------|-7-7-7-7---5---7L-|-(7)--------------|
        E |-2-2-2-4---5------|-----------------|-5-5-5-5---5------|------------------|

        Guitar 2 (Standart tunning, overdrive)

        E |------------------|-----------------|------------------|------------------|
        B |------------------|-----7-7-9-9-7-7-|------------------|----9-9-10-10-9-9-|
        G |------------------|-----7-7-7-7-7-7-|------------------|----9-9-9--9--9-9-|
        D |------------------|-----------------|------------------|------------------|
        A |------------------|-----------------|------------------|------------------|
        E |------------------|-----------------|------------------|------------------|


CHORUS (both guitars)

E |----------------------------|----------------------------|
E |----------------------------|----------------------------|
G |-----------------------7L---|-(7)-7--7--7--7--7--7--7----|
D |--4--4--4--4--4--7--7--7L---|-(7)-7--7--7--7--7--7--7----|
A |--4--4--4--4--4--7--7--5L---|-(5)-5--5--5--5--5--5--5----|
E |--2--2--2--4--4--5--5-------|----------------------------|


E |----------------------------|----------------------------|
B |----------------------------|----------------------------|
G |-----------------------9L---|-(9)-9--9--9--9--9--9--9----|
D |--7--7--7--7--7--7--7--9L---|-(9)-9--9--9--9--9--9--9----|
A |--7--7--7--7--7--5--5--7L---|-(7)-7--7--7--7--7--7--7----|
E |--5--5--5--5--5--5--5-------|----------------------------|   X 2



SOLO


Guitar 1

e |-------|-------|-------|-------|     x 3
B |-------|-------|-------|-------|
G |--7L---|--7----|-------|-------|
D |--7L---|--7----|--4L---|--4----|
A |--5L---|--5----|--4L---|--4----|
E |-------|-------|--2L---|--2----|


e |-------|-------|----------------------------|------------------------||
B |-------|-------|----------------------------|------------------------||
G |--7L---|--7----|--6--6--6--6--6--6--6--6----|------------------------||
D |--7L---|--7----|--6--6--6--6--6--6--6--6----|--6--4--2--4-----2L-2---||
A |--5L---|--5----|--4--4--4--4--4--4--4--4----|--4--2--0--2L-2--0L-0---||
E |-------|-------|----------------------------|------------------------||


Lead guitar


e |--------------------14-16---|--16b15b16-14-16----14------|
B |--17b19----17b19------------|-----------------14----17---|
G |----------------------------|----------------------------|
D |----------------------------|----------------------------|
A |----------------------------|----------------------------|
E |----------------------------|----------------------------|


e |--------------------------|------------------------------|
B |--17b19----17b19----14-15-|-17-15-14--15--14L------------|
G |--------------------------|---------------------16--14---|
D |--------------------------|------------------------------|
A |--------------------------|------------------------------|
E |--------------------------|------------------------------|


e |--------------------------|------------------------------|
B |--14-15-14----------------|--14-15-14-------------14L----|
G |-----------16--14---------|-----------16--14------16b18L-|
D |--------------------------|------------------------------|
A |--------------------------|------------------------------|
E |--------------------------|------------------------------|


e |--------------------------|------------------------------|
B |-(14)----12L-------10L----|-(10)---9L--------------------|
G |-(18)----14b16L----12b14--|-(14)---11b12L----------------|
D |--------------------------|------------------------------|
A |--------------------------|------------------------------|
E |--------------------------|------------------------------|


e |----------------------------------------------------|
B |----------------------------------------------------|
G |--------------------4--------4--6-----4--6--7--4----|
D |--4--6--7--4--6--7-----6--7--------7----------------|
A |----------------------------------------------------|
E |----------------------------------------------------|


e |----------------------------------------------------|
B |--------------------7--------7--9-----7--9--10------|
G |--6--7--9--6--7--9-----7--9--------9-----------11---|
D |----------------------------------------------------|
A |----------------------------------------------------|
E |----------------------------------------------------|


e |-----------------------------9-9-10-9-10-12-9-10L---|
B |--9-10-12-9-9-10-12-10-12-12------------------------|
G |----------------------------------------------------|
D |----------------------------------------------------|
A |----------------------------------------------------|
E |----------------------------------------------------|

e |--10-12-14-10-12-14-15-12-14-15-17-14-15-17-19-15-17-19-17-19-17-19--|
B |---------------------------------------------------------------------|
G |---------------------------------------------------------------------|
D |---------------------------------------------------------------------|
A |---------------------------------------------------------------------|
E |---------------------------------------------------------------------|

e |--19b21---19b21rb19---17-----------19b21L-|-(21)---17----17-19-17-19-|
B |------------------------19-----17---------|-----------19-------------|
G |------------------------------------------|--------------------------|
D |------------------------------------------|--------------------------|
A |------------------------------------------|--------------------------|
E |------------------------------------------|--------------------------|


e |--19b21---19b21---|----------------------------||
B |------------------|----------------------------||
G |------------------|--4b6-4--2--4-----2---------||
D |------------------|----------------------------||
A |------------------|----------------------------||
E |------------------|----------------------------||

CHORUS (both guitars)

E |----------------------------|----------------------------|
E |----------------------------|----------------------------|
G |-----------------------7L---|-(7)-7--7--7--7--7--7--7----|
D |--4--4--4--4--4--7--7--7L---|-(7)-7--7--7--7--7--7--7----|
A |--4--4--4--4--4--7--7--5L---|-(5)-5--5--5--5--5--5--5----|
E |--2--2--2--4--4--5--5-------|----------------------------|


E |----------------------------|----------------------------|
B |----------------------------|----------------------------|
G |-----------------------9L---|-(9)-9--9--9--9--9--9--9----|
D |--7--7--7--7--7--7--7--9L---|-(9)-9--9--9--9--9--9--9----|
A |--7--7--7--7--7--5--5--7L---|-(7)-7--7--7--7--7--7--7----|
E |--5--5--5--5--5--5--5-------|----------------------------|   X 2


OUTRO (I guess a 1 1/2 step down tune was used for this guitar)


C#|----------------------------|-------------------------|
G#|----------------------------|-------------------------|
E |----------------------------|-------------------------|
B |--2--------------2-----5L---|--(5)------7-------------|
F#|--2--------------2-----5L---|--(5)------7-------------|
C#|--0-----x-----x--0--x--3L---|--(3)------5-------------|      Repeat until the end of 
the song

If you wish to use a standart tunning, play this

E |----------------------------|-------------------------|
B |----------------------------|-------------------------|
G |--6--------------6-----9L---|--(9)------11------------|
D |--6--------------6-----9L---|--(9)------11------------|
A |--4--------------4-----7L---|--(7)------9-------------|
E |--------x-----x-----x-------|-------------------------|
Добавлено: 10.08.2015
Другие материалы по этой песне:
  • Аккорды и текст

Страница создана 10.08.2015
http://primanota.ru/tesla/so-divine-chords.htm
Привет, Гость.
Предлагаем пройти революционный курс по гитаре.
Подарок от PrimaNota.Ru, забирай!