PrimaNota.ru - самый крупный в мире бесплатный архив песенных текстов, аккордов, табулатур и нот


Tersbetoni - Voittamaton - таба, видео

Регистрация Запомнить меня
Войти через:  Facebook Google Twitter Vk Yandex Mail.ru

Tersbetoni - Voittamaton - таба, видео

Печатать
Просмотров: 51
Teräsbetoni - Voittamaton

Tabbed by: Lazzle22

Email: Lasse2411@hotmail.com
-------------------------------

h   - hammer-on
p   - pull-off
^   - bend
~   - vibrato
/\  - slide
X\\ - pick scrape
<3> - harmonic
X   - mute
•   - palm mute


Tuning is: Standard (EADGBe)


INTRO (00:00)

e|-------------|---------------------------|
B|-------------|---------------------------|
G|-------------|---------------------------|
D|-------------|-0-2--0-2------------0-2---|
A|pick-scrape--|-0-2--0-2------------0-2---|
E|-x\\\\\\-----|---0----0--0-0-0-0-0---0---|
                           • • • • •
e|---------------------------|-------------------------------|
B|---------------------------|-------------------------------|
G|---------------------------|-------------------------------|
D|-0-2--0-2------------7--2--|-0-2--0-2------------0-2-------|
A|-0-2--0-2------------5--0--|-0-2--0-2------------0-2-------|
E|---0----0--0-0-0-0-0-------|---0----0--0-0-0-0-0---0-------|
             • • • • •                   • • • • •
e|-------------------------------|-----------------------|
B|-------------------------------|-----------------------|
G|----------------------4-----2--|-2--7--2--7---2--------|
D|-0-2--0-2-------------4--5--2--|-2--7--2--7---2--5--2--|
A|-0-2--0-2-------------2--5--0--|-0--5--0--5---0--5--2--|
E|---0----0--0-0-0-0-0-----3-----|-----------------3--0--|
             • • • • •

VERSE (00:20)

e|-------------------|----------------------------------|
B|-------------------|----------------------------------|
G|----------4-----5--|---------5--2--7-----------2--7---|
D|----------4--5--5--|---------5--2--7-----------2--7---|
A|----------2--5--3--|-3-3-3-3-3--0--5--5-5-5-5--0--5---|
E|-0-0-0-0-----3-----|----------------------------------|
   • • • •             • • • •          • • • • 

e|------------------------------------|
B|------------------------------------|
G|--------------------2---------------|
D|-0-2--0-2-----------2--5--0-2--0-2--|
A|-0-2--0-2-----------0--5--0-2--0-2--|
E|---0----0--0-0-0-0-----3----0----0--|
             • • • •
e|-------------------|--------------------------|
B|-------------------|--------------------------|
G|----------4-----5--|----------------------7---|
D|----------4--5--5--|----------2-----------7---|
A|----------2--5--3--|-3-3-3-3----5-3-2-0-2\5---|
E|-0-0-0-0-----3-----|--------------------------|
   • • • •             • • • •   
e|--------------------------------------|
B|--------------------------------------|
G|----------2--7-----4---5---7--7-------|
D|----------2--7--4--4---5---7--7---2x--|
A|-5-5-5-5--0--5--2~~~---3---4--5---2x--|
E|----------------------------------0x--|
   • • • •

2~~~ = Hold down the note

CHORUS (00:55)

e|------------------------------------------|
B|------------------------------------------|
G|----------------2---5---7---2---7---4--4--|
D|-x--2---4---5---2---5---7---2---7---4--4--|
A|-x--2---4---5---0---3---5---0---5---2--2--|
E|-x--0---2---3-----------------------------|


e|------------------------------|-------------------------|
B|------------------------------|-------------------------|
G|------------------2---5---7---|----------------2222-4\--|
D|-x-x--2---4---5---2---5---7---|------1111-4444------2\--|
A|-x-x--2---4---5---0---3---5---|-2222--------------------|
E|-x-x--0---2---3---------------|-------------------------|
                                  •••• •••• •••• ••••

e|---------------------------|------------------------------|
B|---------------------------|------------------------------|
G|---------------------------|---------------------2--------|
D|-0-2--0-2------------0-2---|-0-2--0-2------------2--5--2--|
A|-0-2--0-2------------0-2---|-0-2--0-2------------0--5--2--|
E|---0----0--0-0-0-0-0---0---|---0----0--0-0-0-0-0----3--0--|
             • • • • •                   • • • • •


VERSE (01:33)

e|-------------------|----------------------------------|
B|-------------------|----------------------------------|
G|----------4-----5--|---------5--2--7-----------2--7---|
D|----------4--5--5--|---------5--2--7-----------2--7---|
A|----------2--5--3--|-3-3-3-3-3--0--5--5-5-5-5--0--5---|
E|-0-0-0-0-----3-----|----------------------------------|
   • • • •             • • • •          • • • • 

e|------------------------------------|
B|------------------------------------|
G|--------------------2---------------|
D|-0-2--0-2-----------2--5--0-2--0-2--|
A|-0-2--0-2-----------0--5--0-2--0-2--|
E|---0----0--0-0-0-0-----3----0----0--|
             • • • •
e|-------------------|--------------------|
B|-------------------|--------------------|
G|----------4-----5--|----------5-4-5--7--|
D|----------4--5--5--|----------5-4-5--7--|
A|----------2--5--3--|-3-3-3-3--3-2-3--5--|
E|-0-0-0-0-----3-----|--------------------|
   • • • •             • • • •   
e|--------------------------------------|
B|--------------------------------------|
G|----------2--7-----4---5---7--7-------|
D|----------2--7--4--4---5---7--7---2x--|
A|-5-5-5-5--0--5--2~~~---3---4--5---2x--|
E|----------------------------------0x--|
   • • • •


CHORUS (02:07)

BRIDGE INTO SOLO (02:35)

e|---------------------------|---------------------------|
B|---------------------------|---------------------------|
G|---------------------------|---------------------------|
D|-0-2--0-2--0-2--0-2---0-0--|-0-2--0-2--0-2--0-2--------|x2
A|-0-2--0-2--0-2--0-2---0-0--|-0-2--0-2--0-2--0-2---3-3--|
E|---0----0----0----0--------|---0----0----0----0---3-3--|


SOLO (02:51)

e|------------------------------------------------|
B|------------------------------------------------|
G|------------------------------------------------|
D|------7--------<9>------7----<9>^<10>--7h9p7----|
A|-9999---999999-----9999---99-----------------9--|
E|------------------------------------------------|
   ••••   ••••••     ••••   ••

e|------------------------------------------|
B|-------------------12--13^--10------------| *tricky part :(*
G|-10/11--14p11--14--12--13^--11--11p9-11\--|
D|-10/11--11-----11-------------------------|
A|------------------------------------------|
E|------------------------------------------|

e|-----------------------------------------------------------------------|
B|-----------------------------------------------------------------------|
G|-----------------------------------------------------------------------|
D|----------10--------------<12>----------10------<12>^<13>-10h12p10-----|
A|-12121212----121212121212------12121212----1212--------------------12--|
E|-----------------------------------------------------------------------|
   • • • •     • • • • • •       • • • •     • • 

e|----------------------------------------|
B|-----------------<14>^<15>-14p12-<12>---| *tricky part again*
G|----------------------------------------|
D|-<12>-<10>------------------------------|
A|-----------<12>-------------------------|
E|----------------------------------------|

e|---------------------------------|----------------------------|
B|---------------------------------|-12-10----------------------|
G|-11^12-9--12^13-9--11-13^14--11--|-------12-11--12-11-9----9--|
D|---------------------------------|----------------------12----|
A|---------------------------------|----------------------------|
E|---------------------------------|----------------------------|

RHYTHM GUITAR UNDERNEATH SOLO
                            
e|-------------------------|
B|-------------------------|
G|---------------------7-7-|
D|-2-4--2-4--2-4--2-4--7-7-|x2
A|-2-4--2-4--2-4--2-4--5-5-|
E|-0-2--0-2--0-2--0-2------|

2nd Ending is

e|------|
B|------|
G|------|
D|-2-2--|
A|-2-2--|
E|-0-0--|


e|--------------------------|
B|--------------------------|
G|--------------------------|
D|-5-7--5-7--5-7--5-7--5-5--|x2
A|-5-7--5-7--5-7--5-7--5-5--|
E|-3-5--3-5--3-5--3-5--3-3--|

e|--------------|-----------------------------|
B|--------------|-----------------------------|
G|----------7---|-9--7--5--4---5--4--2-----2--|
D|-5---7----7---|-9--7--5--4---5--4--2--5--2--|
A|-5---7----5---|-7--5--3--2---3--2--0--5--0--|
E|-3---5--------|-----------------------3-----|


CHORUS (03:12)

OUTRO (03:41)

e|---------------------------|-----------------|
B|---------------------------|-----------------|
G|---------------------------|-------------9\--|
D|-0-2--0-2--0-2--0-2---0-0--|-0-2--0-2--0-9\--|
A|-0-2--0-2--0-2--0-2---0-0--|-0-2--0-2--0-7\--|
E|---0----0----0----0--------|---0----0--------|


The solo was a bit hard to tab, but I hope that it's atleast
50% correct, have fun!
Добавлено: 18.05.2016
Другие материалы по этой песне:
  • Аккорды и текст

Страница создана 18.05.2016
http://primanota.ru/tersbetoni/voittamaton-chords.htm
Привет, Гость.
Предлагаем пройти революционный курс по гитаре.
Подарок от PrimaNota.Ru, забирай!