PrimaNota.ru - самый крупный в мире бесплатный архив песенных текстов, аккордов, табулатур и нот


Tersbetoni - Silma Silmasta - таба

Регистрация Запомнить меня
Войти через:  Facebook Google Twitter Vk Yandex Mail.ru

Tersbetoni - Silma Silmasta - таба

Печатать
Просмотров: 44
Teräsbetoni - Silmä Silmästä

Tabbed by: Lazzle22

Email: Lasse2411@hotmail.com
-----------------------------

h   - hammer-on
p   - pull-off
^   - bend
~   - vibrato
/\  - slide
X\\ - pick scrape
<3> - harmonic
X   - mute
•   - palm mute

Tuning is: Standard (EADGBe)

INTRO/CHORUS RIFF (00:00)

  G1
e|----------------------------------------|
B|----------------------------------------|
G|-9--------11-12-11--9--------11-12-11---|
D|-9--------11-12-11--9--------11-12-11---|
A|-7-7-7-7---9-10--9--7-7-7-7---9-10--9---|
E|----------------------------------------|
 |   • • •              • • •
 |G2
e|----------------------------------------|
B|----------------------------------------|
G|----------------------------------------|
D|-2--------------------------------------|
A|-2--------------------------------------|
E|-0--------------------------------------|
                                             x2
  G1
e|----------------------------------------|
B|----------------------------------------|
G|-----------11-12-11--7--------14-12-11--|
D|-10--------11-12-11--7--------14-12-11--|
A|-10---------9-10--9--5-5-5-5--12-10--9--|
E|--8-8-8-8-------------------------------|
 |    • • •              • • •
 |G2
e|----------------------------------------|
B|----------------------------------------|
G|-5-------------------7------------------|
D|-5-------------------7------------------|
A|-3-------------------5------------------|
E|----------------------------------------|



ENDING:
  
  G1
e|--------------------------|
B|--------------------------|
G|----------------9-7-------|
D|-10--------9-10-9-7--5-4--|
A|-10--------9-10-7-5--5-4--|
E|--8-8-8-8--7--8------3-2--|
 |    • • • 
 |G2
e|--------------------------|
B|--------------------------|
G|-5----------------7-------|
D|-5----------------7--5-4--|
A|-3----------------5--5-4--|
E|---------------------3-2--|

VERSE (00:20)

e|--------------------------------|
B|--------------------------------|
G|--------------------------------|
D|-2-------2-------2-------2-4-5--|              
A|-2-------2-------2-------2-4-5--|
E|-0-0-0-0-0-0-0-0-0-0-0-0-0-2-3--|
     • • •   • • •   • • •
e|--------------------------------|                x2
B|--------------------------------|
G|-2-------2-------2-------2-2-4--|
D|-2-------2-------2-------2-2-4--|
A|-0-0-0-0-0-0-0-0-0-0-0-0-0-0-2--|
E|--------------------------------|
     • • •   • • •   • • •
e|-----------------------------------------------------------------|
B|-----------------------------------------------------------------|
G|-5-------5-------5-------5-4-2-----------------7--------2-3-4----|
D|-5-------5-------5-------5-4-2-5-------5-------7--------2-3-4-2--|
A|-3-3-3-3-3-3-3-3-3-3-3-3-3-2-0-5-------5-------5-5-5-5--0-1-2-2--|
E|-------------------------------3-3-3-3-3-3-3-3----------------0--|
     • • •   • • •   • • •         • • •   • • •   • • •

BRIDGE (00:46)

e|---------------------------|----------|
B|---------------------------|----------|
G|-7-------7-7-7--2----------|----7--4--|
D|-7-------7-7-7--2--3--5--2-|-3--7--4--|
A|-5-5-5-5-5-5-5--0--3--5--2-|-3--5--2--|
E|-------------------1--3--0-|-1--------|
     • • •

INTRO/CHORUS RIFF (01:01)

VERSE (01:18)

BRIDGE (01:44)

INTRO/CHORUS RIFF (01:59)


SOLO (02:16)

  G1
e|---------------------------|
B|---------------------------|
G|---------------------------|
D|-----------------9---------|
A|-10--10-10-10------12-10---|
E|--------------12-----------|
 |                            
 |G2                                 *Remember: These are guitar harmonies*
e|-------------------------|
B|-------------------------|
G|-------------------------|
D|-------------------------|
A|-7--7-7-7---10-9-7-------|
E|----------7--------------|
  
  G1
e|---------------------------|
B|---------------------------| 
G|---------------------------|  
D|-----------------9---------|   
A|-10--10-10-10------12-10---|    
E|--------------12-----------|     
 |                                  
 |G2                                   
e|----------------------------|       
B|----------------------------|        
G|----------------------------|         All of this x2
D|----------------------------|        
A|-------------10-9-----------|       
E|-8--8-8-8--7----------------|      
    
  G1                                
e|-------------------|             
B|-------------------|            
G|-------------------|          
D|----------10-9-----|          
A|-9--9-9-9------12--|         
E|-------------------|       
 |                           
 |G2                          
e|-------------------|  
B|-------------------|    
G|-------------------|   
D|----------7-5-4----|   
A|-5--5-5-5----------| 
E|-------------------|



  G1
e|--------------------|
B|--------------------|
G|-9-9-9--12-11-------|
D|--------------12----|
A|--------------------|
E|--------------------|
 |                      x4
 |G2
e|--------------------|
B|-8-8-8--12-10-------|
G|--------------11----|
D|--------------------|
A|--------------------|
E|--------------------| 

  G1
e|-----------------------------------------------------------------------|
B|-----------------------------------------------------10----------------|
G|----------12-11-9----------12-11-9-----------12-11-9----12-11-9-11-----|
D|-10-10-10---------10-10-10----------12-12-12-----------------------12--|
A|-----------------------------------------------------------------------|
E|-----------------------------------------------------------------------|
 |
 |G2
e|------------------------------------------------------------------------|
B|--------12-10------------12-10----------------12-10-12-13-12-10----10---|
G|-9-9-9--------12---9-9-9-------12----11-11-11-------------------12---11-|
D|------------------------------------------------------------------------|
A|------------------------------------------------------------------------|
E|------------------------------------------------------------------------|

  G1
e|--------------------|
B|--------------------|
G|-9-9-9--12-11-------|
D|--------------12----|
A|--------------------|
E|--------------------|
 |                      x4
 |G2
e|--------------------|
B|-8-8-8--12-10-------|
G|--------------11----|
D|--------------------|
A|--------------------|
E|--------------------| 

  G1
e|------------------10-12-14--15-17-19--20-19-17----17--------|
B|---------10-12-13------------------------------20----20-19~-|
G|-9-11-12----------------------------------------------------|
D|------------------------------------------------------------|
A|------------------------------------------------------------|
E|------------------------------------------------------------|
 |
 |G2
e|--------------------------------------17--------------------|
B|-------------------12-13-15--17-19-20----20-19-17-19-17-----|
G|----------11-12-14--------------------------------------19~-|
D|-10-12-14---------------------------------------------------|
A|------------------------------------------------------------|
E|------------------------------------------------------------|


SECOND BRIDGE (02:43)

e|--------------------------------------------------------------|
B|--------------------------------------------------------------|
G|-2-------2-------4-------4-------5-------5-------7------------|
D|-2-------2-------4-------4-------5-------5-------7-------5-4--|
A|-0-0-0-0-0-0-0-0-2-2-2-2-2-2-2-2-3-3-3-3-3-3-3-3-5-5-5-5-5-4--|
E|---------------------------------------------------------3-2--|
     • • •   • • •   • • •   • • •   • • •   • • •   • • •

CHORUS (02:50)

CHORUS (03:07)

OUTRO (03:20)

e|--------------------------|
B|--------------------------|
G|----------------9-7-------|
D|-10--------9-10-9-7--5-4--| x4
A|-10--------9-10-7-5--5-4--|
E|--8-8-8-8--7--8------3-2--|
      • • •


e|-------------------------|
B|-------------------------|
G|-9-------11-12-11-9------|
D|-9-------11-12-11-9------|
A|-7-7-7-7--9-10--9-7------|
E|-------------------------|
     • • •

That's it, have fun!

UPDATE:
Fixed the solo 06/06 2010
Добавлено: 18.05.2016
Другие материалы по этой песне:
  • Аккорды и текст

Страница создана 18.05.2016
http://primanota.ru/tersbetoni/silma-silmasta-chords.htm
Привет, Гость.
Предлагаем пройти революционный курс по гитаре.
Подарок от PrimaNota.Ru, забирай!