PrimaNota.ru - самый крупный в мире бесплатный архив песенных текстов, аккордов, табулатур и нот


Tersbetoni - Orjatar - таба, видео

Регистрация Запомнить меня
Войти через:  Facebook Google Twitter Vk Yandex Mail.ru

Tersbetoni - Orjatar - таба, видео

Печатать
Просмотров: 40
Artist:    Teräsbetoni
Song:      Orjatar
Tabbed by: xHellbound


This is the CD version, not the demo version.


Orjatar! Kuule kaskyni! Ja tieda paikkasi!


h   - hammer-on
p   - pull-off
^   - bend
~   - vibrato
/\  - slide
+   - tap
tr  - tremolo pick
*   - see note
X\\ - pick scrape



Intro

|---------------|---------------|--------|
|---------------|---------------|--------|
|---------------|---------------|--------|
|---------------|---------------|--5--7--|
|--2--2---2--2--|--2--2---2--2--|--3--5--|
|--0--0---0--0--|--0--0---0--0--|--------| Flange effect
PM............  PM............

|---------------|---------------|--------|
|---------------|---------------|--------|
|---------------|---------------|--------|
|---------------|---------------|--5--7--|
|--2--2---2--2--|--2--2---2--2--|--3--5--|
|--0--0---0--0--|--0--0---0--0--|--------| Flange effect
PM............  PM............

|---------|---------|
|---------|---------|
|---------|---------|
|--12\-9--|--12\-7--|
|--10\-7--|--10\-5--|
|---------|---------|

|---------|--------------|
|---------|--------------|
|---------|--------------|
|--9-7-5--|--4--2--------|
|--7-5-3--|--2--0--5--4--|
|---------|--------3--2--|

|---------------|---------------|---------------|--------------|
|---------------|---------------|---------------|--------------|
|---------------|---------------|---------------|--------------|
|---------------|---------------|---------------|--------5--7--|
|--2--2---2--2--|--2--2---2--2--|--2--2---2--2--|--2--2--3--5--|
|--0--0---0--0--|--0--0---0--0--|--0--0---0--0--|--0--0--------|
PM............  PM............  PM............  PM.....



Verse

|---------------|---------------|---------------|--------------|
|---------------|---------------|---------------|--------------|
|---------------|---------------|---------------|--------------|
|---------------|---------------|---------------|--------5--7--|
|--2--2---2--2--|--2--2---2--2--|--2--2---2--2--|--2--2--3--5--|
|--0--0---0--0--|--0--0---0--0--|--0--0---0--0--|--0--0--------|
PM............  PM............  PM............  PM.....


|---------------|---------------|---------------|--------------|
|---------------|---------------|---------------|--------------|
|---------------|---------------|---------------|--------------|
|---------------|---------------|---------------|--------------|
|--2--2---2--2--|--2--2---2--2--|--2--2---2--2--|--2--2--3--5--|
|--0--0---0--0--|--0--0---0--0--|--0--0---0--0--|--0--0--2--3--|
PM............  PM............  PM............  PM.....


|---------------|---------------|---------------|--------------|
|---------------|---------------|---------------|--------------|
|---------------|---------------|---------------|--------------|
|--2--2---2--2--|--2--2---2--2--|--2--2---2--2--|--2--2--5--7--|
|--0--0---0--0--|--0--0---0--0--|--0--0---0--0--|--0--0--3--5--|
|---------------|---------------|---------------|--------------|
PM............  PM............  PM............  PM.....


|---------------|---------------|--------|
|---------------|---------------|--------|
|---------------|---------------|--------|
|---------------|---------------|--5--7--|
|--2--2---2--2--|--2--2---2--2--|--3--5--|
|--0--0---0--0--|--0--0---0--0--|--------|
PM............  PM............


Chorus

|---------|---------|
|---------|---------|
|---------|---------|
|--12\-9--|--12\-7--|
|--10\-7--|--10\-5--|
|---------|---------|

|---------|--------------|
|---------|--------------|
|---------|--------------|
|--9-7-5--|--4--2--------|
|--7-5-3--|--2--0--5--4--|
|---------|--------3--2--|

|---------|---------|
|---------|---------|
|---------|---------|
|--12\-9--|--12\-7--|
|--10\-7--|--10\-5--|
|---------|---------|

|---------|----------|
|---------|----------|
|---------|----------|
|--9-7-5--|--4-------|
|--7-5-3--|--2----4--|
|---------|-------2--|



Verse



Chorus



Solo - Slight delay effect

|-------------|------------------------------|
|--11~-12-14--|--12-14-14^--12h14p12-14-14^--|
|-------------|------------------------------|
|-------------|------------------------------|
|-------------|------------------------------|
|-------------|------------------------------|

|--------------------------------------------------|
|--12-14-12--12-14-12h14-11--12--11----11----------|
|-----------------------------------12----12-11----|
|--------------------------------------------------|
|--------------------------------------------------|
|--------------------------------------------------|

|--------------------------------|
|--------------------------------|
|--12-11h12p11-----11--12--11~~--|
|---------------14---------------|
|--------------------------------|
|--------------------------------|

   +      +      +      +      +      +      +      +      +      +
|--11p8p7--------11p8p7--------11p8p7--------11p8p7--------11p8p7-------------|-------|
|---------10p8p7--------10p8p7--------10p8p7--------10p8p7--------10p8p7--7^--|-------|
|-----------------------------------------------------------------------------|--9~~--|
|-----------------------------------------------------------------------------|-------|
|-----------------------------------------------------------------------------|-------|
|-----------------------------------------------------------------------------|-------|

|---------------------------|
|---------------------------|
|---------------------------|
|--------13-14-16-14-13-----|
|--14-15----------------15--|
|---------------------------| x2

|---------------------------|
|---------------------------|
|--------------16-----------|
|-----14-16-17----17-16-14--|
|--15-----------------------|
|---------------------------| x2

|--11tr-12tr-14tr-11tr--12*\--|
|-----------------------------|
|-----------------------------|
|-----------------------------|
|-----------------------------|
|-----------------------------| *Attack with the whammy bar



Solo Rhythm

|---------------------------------------|
|---------------------------------------|
|---------------------------------------|
|---------------------------------------|
|--------4--4-4-4--4-4-4--4-4-4--4-4-5--|
|--12\---2--2-2-2--2-2-2--2-2-2--2-2-3--|
       PM.............................


|------------------------------|
|------------------------------|
|------------------------------|
|------------------------------|
|--5-5-5--5-5-5--5-5-5--5-5-4--|
|--3-3-3--3-3-3--3-3-3--3-3-2--|
PM...........................


|------------------------------|
|------------------------------|
|------------------------------|
|------------------------------|
|--4-4-4--4-4-4--4-4-4--4-4-5--|
|--2-2-2--2-2-2--2-2-2--2-2-3--|
PM...........................


|------------------------------|
|------------------------------|
|------------------------------|
|---------------------------4--|
|--5-5-5--5-5-5--5-5-5--5-5-2--|
|--3-3-3--3-3-3--3-3-3--3-3----|
PM...........................


|------------------------------|
|------------------------------|
|------------------------------|
|--4-4-4--4-4-4--4-4-4--4-4-5--|
|--2-2-2--2-2-2--2-2-2--2-2-3--|
|------------------------------|
PM...........................


|------------------------------|
|------------------------------|
|------------------------------|
|--5-5-5--5-5-5--5-5-5--5-5-4--|
|--3-3-3--3-3-3--3-3-3--3-3-2--|
|------------------------------|
PM...........................


|------------------------------|
|------------------------------|
|------------------------------|
|--4-4-4--4-4-4--4-4-4--4-4-5--|
|--2-2-2--2-2-2--2-2-2--2-2-3--|
|------------------------------|
PM...........................


|---------------------------------------|
|---------------------------------------|
|---------------------------------------|
|--5-5-5--5-5-5--5-5-5--5-5-4--2--------|
|--3-3-3--3-3-3--3-3-3--3-3-2--0--5--4--|
|---------------------------------3--2--|
PM.........................



Break

|-------|
|-------|
|-------|
|-------|
|--X//--|
|--X//--|



Outro Chorus

|----------|---------|
|----------|---------|
|----------|---------|
|--14\-11--|--14\-9--|
|--12\-9---|--12\-7--|
|----------|---------|

|----------|--------------|
|----------|--------------|
|----------|--------------|
|--11-9-7--|--6--4--------|
|--9--7-5--|--4--2--7--6--|
|----------|--------5--4--|

|----------|---------|
|----------|---------|
|----------|---------|
|--14\-11--|--14\-9--|
|--12\-9---|--12\-7--|
|----------|---------|

|----------|-------------------|-----|
|----------|-------------------|-----|
|----------|-------------------|-----|
|--11-9-7--|--6----6--4--------|-----|
|--9--7-5--|--4----4--2--7--6--|--4--|
|----------|-------------5--4--|--2--|
Добавлено: 18.05.2016
Другие материалы по этой песне:
  • Аккорды и текст

Страница создана 18.05.2016
http://primanota.ru/tersbetoni/orjatar-chords.htm
Привет, Гость.
Предлагаем пройти революционный курс по гитаре.
Подарок от PrimaNota.Ru, забирай!