PrimaNota.ru - самый крупный в мире бесплатный архив песенных текстов, аккордов, табулатур и нот


Tersbetoni - Ala Kerro Meille - таба

Регистрация Запомнить меня
Войти через:  Facebook Google Twitter Vk Yandex Mail.ru

Tersbetoni - Ala Kerro Meille - таба

Печатать
Просмотров: 61
Teräsbetoni - Älä Kerro Meille

Tabbed by: Lazzle22

Email: Lasse2411@hotmail.com
--------------------------------

h   - hammer-on
p   - pull-off
^   - bend
~   - vibrato
/\  - slide
X\\ - pick scrape
<3> - harmonic
X   - mute
•   - palm mute

Tuning is: Standard (EADGBe)

INTRO (00:00)

e|-------------------------------------------------|
B|-------------------------------------------------|
G|-------------------------------------------------|
D|------2-0-2-----2-0-2------------2-0-2-----0-2---|x2
A|-5p0--2-0-2-----2-0-2-------5p0--2-0-2-----0-2---|
E|-3p0--0-0-0-0-0-0-0-2--0-0--3p0--0-0-0-0-0-0-0---|
              • •        • •             • •

VERSE (00:11)

e|-----------------------------------------|
B|-----------------------------------------|
G|-----------------------------------------|
D|-----------------------2-0-2-----2-0-2---|
A|------------------5p0--2-0-2-----2-0-2---|
E|-0-0-0-0-0-0-0-0--3p0--0-0-0-0-0-0-0-0---|
   • • • • • • • •             • •

e|----------------------------------------|
B|----------------------------------------|
G|---------7--4---------------------------|
D|---------7--4-------2-0-2-----2-0-2-----|
A|---------5--2--5p0--2-0-2-----2-0-2-----|
E|-0-0-0-0-------3p0--0-0-0-0-0-0-0-0-----|
   • • • •                  • •

e|-----------------------------------------|
B|-----------------------------------------|
G|-----------------------------------------|
D|-----------------------2-0-2-----2-0-2---|
A|------------------5p0--2-0-2-----2-0-2---|
E|-0-0-0-0-0-0-0-0--3p0--0-0-0-0-0-0-0-0---|
   • • • • • • • •             • •

e|----------------------------------------|
B|----------------------------------------|
G|---------4--7---------------------------|
D|---------4--7-------2-0-2-----0-2\------|
A|---------2--5--5p0--2-0-2-----0-2\------|
E|-0-0-0-0-------3p0--0-0-0-0-0-0-0\------|
   • • • •                  • •


BRIDGE (00:33)

e|---------------------------------------------------|
B|---------------------------------------------------|
G|-------2--------------2------------------------7---|
D|-------2--5--3--------2--5--3------------------7---|
A|-0--0--0--5--3--0--0--0--5--3--3-3-3-3-3-3-3-3-5---|
E|----------3--1-----------3--1----------------------|
   •  •           •  •           • • • • • • • •

CHORUS (00:43)

e|----------------------------------------------------------------|
B|----------------------------------------------------------------|
G|----------7--9--5------------7--9-7------------------4---4---4--|
D|-2--4--5--7--9--5---2--4--5--7--9-7------------------4---4---4--|
A|-2--4--5--5--7--3---2--4--5--5--7-5-3-3-3-3-3-3-3-3--2-2-2-2-2--|
E|-0--2--3------------0--2--3-------------------------------------|
                                      • • • • • • • •    •   •

e|-------------------------------------------------| 
B|-------------------------------------------------|
G|-------------------------------------------------|
D|------2-0-2-----2-0-2------------2-0-2-----0-2---|
A|-5p0--2-0-2-----2-0-2-------5p0--2-0-2-----0-2---|
E|-3p0--0-0-0-0-0-0-0-2--0-0--3p0--0-0-0-0-0-0-0---|
              • •        • •             • •

VERSE (01:14)

e|-----------------------------------------|
B|-----------------------------------------|
G|-----------------------------------------|
D|-----------------------2-0-2-----2-0-2---|
A|------------------5p0--2-0-2-----2-0-2---|
E|-0-0-0-0-0-0-0-0--3p0--0-0-0-0-0-0-0-0---|
   • • • • • • • •             • •

e|----------------------------------------|
B|----------------------------------------|
G|---------7--4---------------------------|
D|---------7--4-------2-0-2-----2-0-2-----|
A|---------5--2--5p0--2-0-2-----2-0-2-----|
E|-0-0-0-0-------3p0--0-0-0-0-0-0-0-0-----|
   • • • •                  • •

e|-----------------------------------------|
B|-----------------------------------------|
G|-----------------------------------------|
D|-----------------------2-0-2-----2-0-2---|
A|---------5-5-5-5--5p0--2-0-2-----2-0-2---|
E|-0-0-0-0----------3p0--0-0-0-0-0-0-0-0---|
   • • • • • • • •             • •

e|----------------------------------------|
B|----------------------------------------|
G|---------4--7---------------------------|
D|---------4--7-------2-0-2-----0-2\------|
A|---------2--5--5p0--2-0-2-----0-2\------|
E|-0-0-0-0-------3p0--0-0-0-0-0-0-0\------|
   • • • •                  • •

BRIDGE (01:36)

e|---------------------------------------------------|
B|---------------------------------------------------|
G|-2--2-----------2--2---------------------------7---|
D|-2--2-------3---2--2-------3-------------------7---|
A|-0--0-------3---0--0-------3--3-3-3-3-3-3-3-3--5---|
E|-------3-3--1---------3-3--1-----------------------|
         • •            • •     • • • • • • • •


CHORUS (01:46)

SOLO (02:09)

e|---------------------------------------------|
B|---------------------------------------------|
G|---------------------------------------------|
D|----4--<5>--7-------4\--5--7---5--4h5p4------|
A|-7---------------7----------------------7-5--|
E|---------------------------------------------|

e|-15-14-12----------15-14-12----------15-14-12----------------------|
B|----------15-13-12----------15-13-12----------15-13-12-------------|
G|-------------------------------------------------------14-12-11----|
D|----------------------------------------------------------------12-|
A|-------------------------------------------------------------------|
E|-------------------------------------------------------------------|

e|--------------------------------|
B|--------------------------------|
G|-9-11-12-11--9-11-12-14^16-12---|
D|--------------------------------|
A|--------------------------------|
E|--------------------------------|

e|-----------------------------|
B|--------------17--20^22-17~--|
G|-16-19^21-16-----------------|
D|-----------------------------|
A|-----------------------------|
E|-----------------------------|

e|-------------------------------------------------|
B|-15-13-12-----------------------------------17~--|
G|----------14-12-11-------------------------------|
D|-------------------13~---10-9-7------------------|
A|--------------------------------10-9-7-6~--------|
E|-------------------------------------------------|

RYTHM GUITAR UNDERNEATH SOLO

e|----------------------------------------------------------|
B|----------------------------------------------------------|
G|-----2------------2---------5---7-------------------------|
D|-----2--5--3------2--5--3---5---7--------2-0-2-----2-0-2--|
A|-0-0-0--5--3--0-0-0--5--3---3---5---5p0--2-0-2-----2-0-2--|
E|--------3--1---------3--1-----------3p0--0-0-2-0-0-0-0-0--|
   • •          • •                              • •

e|----------------------------------------------------------|
B|----------------------------------------------------------|
G|-----5---7---9---2--------4---7\--------------------------|
D|-----5---7---9---2---5----4---7\---------2-0-2-----2-0-2--|
A|-----3---5---7---0---5----2---5\----5p0--2-0-2-----2-0-2--|
E|-0-0-----------------3--------------3p0--0-0-0-0-0-0-0-0--|
   • •                                           • •

e|--------------------------------------------|
B|--------------------------------------------|
G|--------------------------------------------|
D|------2-0-2-----0-2--------2-0-2-----2-0-2--|
A|-5p0--2-0-2-----0-2---5p0--2-0-2-----2-0-2--|
E|-3p0--0-0-0-0-0-0-2---3p0--0-0-0-0-0-0-0-0--|
              • •                  • •

e|----------------------|
B|----------------------|
G|----------------------|
D|------2-0-2-----0-2---|
A|-5p0--2-0-2-----0-2---|
E|-3p0--0-0-0-0-0-0-0---|
              • •

CHORUS (02:45)

e|--------------------------------------------------|
B|--------------------------------------------------|
G|----7--9--5-------------7--9--7---9-11-12-14-12---|
D|-5--7--9--5---2--4--5---7--9--7-------------------|
A|-5--5--7--3---2--4--5---5--7--5-------------------|
E|-3------------0--2--3-----------------------------|
 |
 |
e|--------------------------------------------------|
B|--------------------------------------------------|
G|----7--9--5-------------7--9--7--5--7--12--14-----|
D|-5--7--9--5---2--4--5---7--9--7--5--7--12--14-----|
A|-5--5--7--3---2--4--5---5--7--5--3--5--10--12-----|
E|-3------------0--2--3-----------------------------|


e|-----------------------------------|
B|-----------------------------------|
G|----7-----12----14^16-14p12--------|
D|-5--7--14----14-------------14~----|
A|-5--5------------------------------|
E|-3---------------------------------|
 |
 |
e|-----------------------------------|
B|-----------------------------------|
G|----7--------------------9-------5-|
D|-5--7--------------------9-------5-|
A|-5--5--------------------7-------3-|
E|-3---------------------------------|


e|-------------|
B|-22^24-20~---| 
G|-------------|
D|-------------|
A|-------------|
E|-------------|
 |
 |
e|-------------|
B|-------------|
G|-------------|
D|-2--4--5-----|
A|-2--4--5-----|
E|-0--2--3-----|

e|----------------------------------------|
B|----------------------------------------|
G|--7--9--7-------------------4---4---4---|
D|--7--9--7-------------------4---4---4---|
A|--5--7--5--3-3-3-3-3-3-3-3--2-2-2-2-2---|
E|----------------------------------------|
             • • • • • • • •    •   •

And there it is, have fun! =]



Добавлено: 28.03.2016
Другие материалы по этой песне:
  • Аккорды и текст

Страница создана 28.03.2016
http://primanota.ru/tersbetoni/ala-kerro-meille-chords.htm
Привет, Гость.
Предлагаем пройти революционный курс по гитаре.
Подарок от PrimaNota.Ru, забирай!