PrimaNota.ru - самый крупный в мире бесплатный архив песенных текстов, аккордов, табулатур и нот


Terry Lockerbie - People Dont Understand People Like Me - аккорды и текст, видео

Регистрация Запомнить меня
Войти через:  Facebook Google Twitter Vk Yandex Mail.ru

Terry Lockerbie - People Dont Understand People Like Me - аккорды и текст, видео

Печатать
Просмотров: 41
Уроки эстрадного вокала в Санкт-Петербурге
People Dont Understand People Like Me
Terry Lockerbie
SONG:   PEOPLE DON'T UNDERSTAND (PEOPLE LIKE ME)
ARTIST: TREY LOCKERBIE
TAB BY: DON CZARSKI
EMAIL:  GUITARZAN7@HOTMAIL.COM
        TV SHOW: ALPHAS


         PEOPLE DON'T UNDERSTAND (PEOPLE LIKE ME)
                     TREY LOCKERBIE
                    

INTRO:  RIFF 
                                                     
             F#          A B            F#              A E 
E ------------------------------------------------------------
B ------------------------------------------------------------
G ----------4/6--6\4-----2-4-----------4/6--6\4br~~4br--2-----
D --------------------4-----------------------------------4---
A ------------------------------------------------------------
E -0-2-0-2-------------------0-2-0-2--------------------------


             F#          A B            F#              A E 
E ------------------------------------------------------------
B ------------------------------------------------------------
G ----------4/6--6\4-----2-4-----------4/6--6\4br~~4br--2-----
D --------------------4-----------------------------------4---
A ------------------------------------------------------------
E -0-2-0-2-------------------0-2-0-2--------------------------


VERSE:
            F#            F#m
Don't take "no" for an answer
            F#       B         F#m
There's no telling where we've been
           B                          
And all I know is that if you can find me
                              F#                   
You may never wanna find me again

      F#          A B            F#          A E 
E ------------------------------------------------
B ------------------------------------------------
G ---4/6--6\4-----2-4-----------4/6--6\4-----2----
D -------------4--------------------------4----4--
A ------------------------------------------------
E --------------------0-2-0-2---------------------


CHORUS:
        A
'Cause people don't understand

Understand, understand
  B
People don't understand
 N.C.       F#
People like me

      F#          A B            F#          A E 
E ------------------------------------------------
B ------------------------------------------------
G ---4/6--6\4-----2-4-----------4/6--6\4-----2----
D -------------4--------------------------4----4--
A ------------------------------------------------
E --------------------0-2-0-2---------------------


VERSE:
              F#       B         F#m
'Cause these eyes can see right through you
      E       F#m          E        F#m   
Don't be surprised when I read your mind
     A         B
And don't you bother lockin' up them doors
                           F#      
'Cause I'm already here inside

      F#          A B            F#          A E 
E ------------------------------------------------
B ------------------------------------------------
G ---4/6--6\4-----2-4-----------4/6--6\4-----2----
D -------------4--------------------------4----4--
A ------------------------------------------------
E --------------------0-2-0-2---------------------


CHORUS:
        A
'Cause people don't understand

Understand, understand
 B            E     B
People don't understand
     A
No, people don't understand

Understand, understand
 B            E     B
People don't understand
         A            F#m
People liiiiiiiiiike meeeeeeeeee
         A            F#m 
People liiiiiiiiiike meeeeeeeeee
            F#
People like me


INSTRUMENTAL: 
SOLO OVER THE CHORDS
   F#m         B  

THEN
      F#          A B            F#          A E 
E ------------------------------------------------
B ------------------------------------------------
G ---4/6--6\4-----2-4-----------4/6--6\4-----2----
D -------------4--------------------------4----4--
A ------------------------------------------------
E --------------------0-2-0-2---------------------


VERSE:
        F#m             A    
I'm the man you know forever
             F#m     Bm      F#m  
And I'm the stranger in your head
     A        B
And don't believe everything they tell ya
                                       F#
'Cause there's much more to what they said

      F#          A B            F#          A E 
E ------------------------------------------------
B ------------------------------------------------
G ---4/6--6\4-----2-4-----------4/6--6\4-----2----
D -------------4--------------------------4----4--
A ------------------------------------------------
E --------------------0-2-0-2---------------------


CHORUS:
         A
'Cause people don't understand

Understand, understand
  B                 D
People don't understand
      A
No, people don't understand

Understand, understand
  B                 E
People don't understand
     A
No, people don't understand

Understand, understand
  B                 E
People don't understand
             F# 
People like me

      F#          A B      F#          
E ------------------------------
B ------------------------------
G ---4/6--6\4-----2-4-----------
D -------------4----------------
A ------------------------------
E --------------------0-2-0-2---



Добавлено: 14.08.2015
Другие материалы по этой песне:
  • Аккорды и текст

Страница создана 14.08.2015
http://primanota.ru/terry-lockerbie/people-dont-understand-people-like-me-chords.htm
Привет, Гость.
Предлагаем пройти революционный курс по гитаре.
Подарок от PrimaNota.Ru, забирай!