PrimaNota.ru - самый крупный в мире бесплатный архив песенных текстов, аккордов, табулатур и нот


Terrorvision - What Shall We Do - аккорды и текст, таба, видео

Регистрация Запомнить меня
Войти через:  Facebook Google Twitter Vk Yandex Mail.ru

Terrorvision - What Shall We Do - аккорды и текст, таба, видео

Печатать
Просмотров: 144
What Shall We Do
Terrorvision
		   'What shall we do with the drunken sailor' - Terrorvision

 Transcribed by Toby Jones   tjones@bournemouth.ac.uk>

  - Fancy a quickie -

 Rythm A: (clean)
 E-|-1---------------|-----------------|-1---------------|---------1-------|
 B-|-3---------------|-1---------------|-3---------------|-1-------3-------|
 G-|-2---------------|-0---------------|-2---------------|-0-------2-------|
 D-|-0---------------|-2---------------|-0---------------|-2-------0-------|
 A-|-0---------------|-3---------------|-0---------------|-3-------0-------|
 E-|-----------------|-----------------|-----------------|-----------------|

 Rythm B: (distrotion)
 E-|-----------------|-----------------|-----------------|-----------------|
 B-|-----------------|-----------------|-----------------|-----------------|
 G-|-7-7-7-7-7-7-7-7-|-5-5-5-5-5-5-5-5-|-7-7-7-7-7-7-7-7-|-5-5-5-5-7-7-7-7-|
 D-|-7-7-7-7-7-7-7-7-|-5-5-5-5-5-5-5-5-|-7-7-7-7-7-7-7-7-|-5-5-5-5-7-7-7-7-|
 A-|-5-5-5-5-5-5-5-5-|-3-3-3-3-3-3-3-3-|-5-5-5-5-5-5-5-5-|-3-3-3-3-5-5-5-5-|
 E-|-----------------|-----------------|-----------------|-----------------|


 RIFF A: (distortion)
 E-|---------------------------|---------------------|
 B-|---------------------------|---------------------|
 G-|-8h9h10-10-10-8h9h10-10-10-|-6h7h8-8-8-6h7h8-8-8-|
 D-|---------------------------|---------------------|
 A-|---------------------------|---------------------|
 E-|---------------------------|---------------------|

 E-|---------------------------|-----------------------|
 B-|---------------------------|-----------------------|
 G-|-8h9h10-10-10-8h9h10-10-10-|-6h7h8-8---8h9h10-10---|
 D-|---------------------------|-----------------------|
 A-|---------------------------|-----------------------|
 E-|---------------------------|-----------------------|

 Outro: (distortion)
 E-|-----------------|-----------------|
 B-|-----------------|-----------------|
 G-|---7---6---5---4-|---3---2--7-7--7-|
 D-|-5---4---3---2---|-1---0----7-7--7-|
 A-|-----------------|----------5-5--5-|
 E-|-----------------|-----------------|


 Key:
 h - Hammer on


 Song Order:

 Rythm A x 2
 Rythm B x 3
 Riff A w/ Rythm B
 Rythm A x 2
 Rythm B x 2
 Riff A w/ Rythm B x 2
 Outro     
Добавлено: 08.10.2013
Другие материалы по этой песне:
  • Аккорды и текст

Страница создана 24.04.2012
http://primanota.ru/terrorvision/what-shall-we-do-chords.htm
Привет, Гость.
Предлагаем пройти революционный курс по гитаре.
Подарок от PrimaNota.Ru, забирай!