PrimaNota.ru - самый крупный в мире бесплатный архив песенных текстов, аккордов, табулатур и нот


Terrorvision - Stop The Bus - аккорды и текст, таба, бас-таба, видео

Регистрация Запомнить меня
Войти через:  Facebook Google Twitter Vk Yandex Mail.ru

Terrorvision - Stop The Bus - аккорды и текст, таба, бас-таба, видео

Печатать
Просмотров: 172
Stop The Bus
Terrorvision
		   'Stop the bus' - Terrorvision

Transcribed by Toby Jones   tjones@bournemouth.ac.uk>

Typical Terrorvision....Simple and loadsa fun to play


RIFF A: (distortion)
E-|------------------|-----------------|------------------|-----------------|
B-|------------------|-----------------|------------------|-----------------|
G-|------------------|-----------------|------------------|-----------------|
D-|-----8-----9------|-----8--9--8-----|-----8-----9------|-----8--9--8-----|
A-|------------------|--------------9--|------------------|--------------9--|
E-|-7----------------|-7---------------|-7----------------|-7---------------|

E-|------------------|-----------------|------------------|-----------------|
B-|------------------|-----------------|------------------|-----------------|
G-|------------------|-----------------|-5----------------|-4-------3-------|
D-|-----8-----9------|-----8--9--8-----|-5----------------|-4-------3-------|
A-|------------------|--------------9--|-3----------------|-2-------1-------|
E-|-7----------------|-7---------------|------------------|-----------------|


RIFF B: (distortion)
E-|------------------|-----------------|------------------|-----------------|
B-|------------------|-----------------|------------------|-----------------|
G-|------------------|-----------------|------------------|-----------------|
D-|-----8-----9------|-----8--9--8-----|-----8-----9------|-----8--9--8-----|
A-|------------------|--------------9--|------------------|--------------9--|
E-|-7----------------|-7---------------|-7----------------|-7---------------|

E-|------------------|-----------------|------------------|-----------------|
B-|------------------|-----------------|------------------|-----------------|
G-|------------------|-----------------|-5----------------|-5-------7-------|
D-|-----8-----9------|-----8--9--8-----|-5----------------|-5-------7-------|
A-|------------------|--------------9--|-3----------------|-4-------5-------|
E-|-7----------------|-7---------------|------------------|-----------------|


Fill A: (distortion)
E-|------------------|------------------|
B-|------------------|------------------|
G-|------------------|------------------|
D-|-4----------------|------------------|
A-|-4----------------|------------------|
E-|-2----------------|------------------|

RYTHM1:
(clean)
E-|----------2-------|------------------|
B-|------------------|----------2-------|
G-|-------4----------|-------4-----4----|
D-|----4-------------|----4-----------4-|
A-|-2----------------|-2----------------|
E-|------------------|------------------|

RYTHM2:
(distortion)
E-|------------------|------------------|
B-|------------------|------------------|
G-|-4--4-------------|-4--4--2--2---2---|
D-|-4--4-------------|-4--4--2--2---2---|
A-|-2--2-------------|-2--2--0--0---0---|
E-|------------------|------------------|

Solo: (distortion)
E-|----------------------------------|--------------------------------------|
B-|--7------7---------7------7-------|--12------12---------12------12-------|
G-|--9b(11)-9b(11)----9b(11)-9b(11)--|--14b(16)-14b(16)----14b(16)-14b(16)--|
D-|----------------------------------|--------------------------------------|
A-|----------------------------------|--------------------------------------|
E-|----------------------------------|--------------------------------------|

E-|----------------------------------|--------------------------------------|
B-|--7------7---------7------7-------|--12------12---------12------12-------|
G-|--9b(11)-9b(11)----9b(11)-9b(11)--|--14b(16)-14b(16)----14b(16)-14b(16)--|
D-|----------------------------------|--------------------------------------|
A-|----------------------------------|--------------------------------------|
E-|----------------------------------|--------------------------------------|

E-|----------------------------------------|----------------------------------------|
B-|-------------------------------10b(12)--|----------------------------------------|
G-|--9b(11)p7-9b(11)p7-9b(11)p7------------|--9b(11)p7-9b(11)p7-9b(11)p7------------|
D-|----------------------------------------|-------------------------------9~~~~----|
A-|----------------------------------------|----------------------------------------|
E-|----------------------------------------|----------------------------------------|


E-|----------------------------------------|----------------------------------------|
B-|-------------------------------10b(12)--|----------------------------------------|
G-|--9b(11)p7-9b(11)p7-9b(11)p7------------|--9b(11)p7-9b(11)p7-9b(11)p7------------|
D-|----------------------------------------|-------------------------------9~~~~----|
A-|----------------------------------------|----------------------------------------|
E-|----------------------------------------|----------------------------------------|

Fill B: (distorted)
E-|------------------|------------------|
B-|------------------|------------------|
G-|-----9-------7----|-----4-------5----|
D-|---9-------7------|---4-------5------|
A-|-7-----6----------|-2-----3----------|
E-|------------------|------------------|

Outro: (distorted)
E-|------------------|-----------------|------------------|-----------------|
B-|------------------|-----------------|------------------|-----------------|
G-|------------------|-----------------|------------------|-----------------|
D-|-----1-----2------|-----1--2--1-----|-----1-----2------|-----1--2--1-----|
A-|------------------|--------------2--|------------------|--------------2--|
E-|-0----------------|-0---------------|-0----------------|-0---------------|

E-|------------------|-----------------|------------------|-----------------|
B-|------------------|-----------------|------------------|-----------------|
G-|------------------|-----------------|-5----------------|-4-------3-------|
D-|-----1-----2------|-----1--2--1-----|-5----------------|-4-------3-------|
A-|------------------|--------------2--|-3----------------|-2-------1-------|
E-|-0----------------|-0---------------|------------------|-----------------|

E-|------------------|-----------------|------------------|-----------------|
B-|------------------|-----------------|------------------|-----------------|
G-|------------------|-----------------|------------------|-----------------|
D-|-----1-----2------|-----1--2--1-----|-----1-----2------|-----1--2--1-----|
A-|------------------|--------------2--|------------------|--------------2--|
E-|-0----------------|-0---------------|-0----------------|-0---------------|

E-|------------------|-----------------|------------------|-----------------|
B-|------------------|-----------------|------------------|-----------------|
G-|------------------|-----------------|-5----------------|-6-------7-------|
D-|-----1-----2------|-----1--2--1-----|-5----------------|-6-------7-------|
A-|------------------|--------------2--|-3----------------|-4-------5-------|
E-|-0----------------|-0---------------|------------------|-----------------|

E-|------------------|------------------|
B-|------------------|------------------|
G-|-2--4----4--2--4--|-7----------------|
D-|-2--4----4--2--4--|-7----------------|
A-|-0--2----2--0--2--|-5----------------|
E-|------------------|------------------|

Key:
b - Bend string
p - Pull off
~ - Vibrato


Song Order:

Riff A
Riff B
Fill A
- 2 Bars of nothingness -
Rythm1 x 4
Riff A
Rythm1 x 4
Riff A
Riff B
Fill A x 2 (w/Clean guitar)
Rythm2 x 4
Solo (w/Rythm2 x 8)
Fill B
Rythm1 x 4 (w/Fill A x 1)
Rythm2 x 8
Fill B (w/clean guitar)
Riff A
Riff B
Outro     
Добавлено: 24.11.2013
Другие материалы по этой песне:

Страница создана 10.03.2012
http://primanota.ru/terrorvision/stop-the-bus-chords.htm
Привет, Гость.
Предлагаем пройти революционный курс по гитаре.
Подарок от PrimaNota.Ru, забирай!