PrimaNota.ru - самый крупный в мире бесплатный архив песенных текстов, аккордов, табулатур и нот


Terrorvision - My House - аккорды и текст, таба, видео

Регистрация Запомнить меня
Войти через:  Facebook Google Twitter Vk Yandex Mail.ru

Terrorvision - My House - аккорды и текст, таба, видео

Печатать
Просмотров: 172
Уроки эстрадного вокала в Санкт-Петербурге
My House
Terrorvision
My House
				Terrorvision
 
FROM: Jamescoxon@aol (James Coxon)

Submitted by D-Low (d.low@teen.Co.uk)

MY HOSE - Terrorvision
from Formaldehyde
by James Coxon.

INTRO:

E7#9        A7
|-------------------------5-x-5-x-5-5-x-x-|
|-----8-x-8-x-8-8-x-x-----5-x-5-x-5-5-x-x-|
|-----7-x-7-x-7-7-x-x-----6-x-6-x-6-6-x-x-|
|-----6-x-6-x-6-6-x-x-----5-x-5-x-5-5-x-x-|
|-----7-x-7-x-7-7-x-x-----7-x-7-x-7-7-x-x-|
|-0-0-----------------5-5-5-x-5-x-5-5-x-x-|

E7#9         B7
|----------------------7-7-7-7-7-|
|-----8-x-8-x-8-8-x-x--7-7-7-7-7-|
|-----7-x-7-x-7-7-x-x--8-8-8-8-8-|
|-----6-x-6-x-6-6-x-x--7-7-7-7-7-|
|-----7-x-7-x-7-7-x-x--9-9-9-9-9-|
|-0-0------------------7-7-7-7-7-|

RHTHM A:
E7#9        A7
|-------------------------5-x-5-x-5-5-x-x-|
|-----8-x-8-x-8-8-x-x-----5-x-5-x-5-5-x-x-|
|-----7-x-7-x-7-7-x-x-----6-x-6-x-6-6-x-x-|
|-----6-x-6-x-6-6-x-x-----5-x-5-x-5-5-x-x-|
|-----7-x-7-x-7-7-x-x-----7-x-7-x-7-7-x-x-|
|-0-0-----------------5-5-5-x-5-x-5-5-x-x-|

E7#9        A7
|-------------------------5-x-5-x-5-5-x-x-|
|-----8-x-8-x-8-8-x-x-----5-x-5-x-5-5-x-x-|
|-----7-x-7-x-7-7-x-x-----6-x-6-x-6-6-x-x-|
|-----6-x-6-x-6-6-x-x-----5-x-5-x-5-5-x-x-|
|-----7-x-7-x-7-7-x-x-----7-x-7-x-7-7-x-x-|
|-0-0-----------------5-5-5-x-5-x-5-5-x-x-|

C#m            E7#9
|-----9--x-9--x-9--9--x-x---------------------|
|-----9--x-9--x-9--9--x-x-----8-x-8-x-8-8-x-x-|
|-----9--x-9--x-9--9--x-x-----7-x-7-x-7-7-x-x-|
|-----11-x-11-x-11-11-x-x-----6-x-6-x-6-6-x-x-|
|-----11-x-11-x-11-11-x-x-----7-x-7-x-7-7-x-x-|
|-9-9-9--x-9--x-9--9--x-x-0-0-----------------|

C#m			     	   B7
|-----9--x-9--x-9--9--x-x--7-7-7-7-7-|
|-----9--x-9--x-9--9--x-x--7-7-7-7-7-|
|-----9--x-9--x-9--9--x-x--8-8-8-8-8-|
|-----11-x-11-x-11-11-x-x--7-7-7-7-7-|
|-----11-x-11-x-11-11-x-x--9-9-9-9-9-|
|-9-9-9--x-9--x-9--9--x-x--7-7-7-7-7-|

RHTHM B:
E7#9			  A7
|-------------------------------------|
|-----8---8-----8-------5---5-----5---|
|---7---7---7---------6---6---6-------|
|-------------6-----------------5-----|
|-7-----------------------------------|
|-------------------5-----------------|

E7#9			  A7
|-------------------------------------|
|-----8---8-----8-------5---5-----5---|
|---7---7---7---------6---6---6-------|
|-------------6-----------------5-----|
|-7-----------------------------------|
|-------------------5-----------------|

C#m			  E7#9
|-----------------------------------------|
|---------------------------8---8-----8---|
|------9----9-------9-----7---7---7-------|
|---11---11---11--------------------6-----|
|----------------11-----7-----------------|
|-9---------------------------------------|

C#m			     B7
|----------------------7-7-7-7-7---------|
|----------------------7-7-7-7-7---------|
|------9----9-------9--8-8-8-8-8---------|
|---11---11---11-------7-7-7-7-7---------|
|----------------11----9-9-9-9-9---------|
|-9--------------------7-7-7-7-7---------|

RHTHM C:
Use E7#9 and A7 chords.

ND:
  B7		 G7		E7
|-7----------3----------0----------|
|-7----------3----------0----------|
|-8----------4----------1----------|
|-7----------3----------0----------|
|-9----------5----------2----------|
|-7----------3----------0----------|
Добавлено: 06.10.2013
Другие материалы по этой песне:
  • Аккорды и текст

Страница создана 10.03.2012
http://primanota.ru/terrorvision/my-house-chords.htm
Привет, Гость.
Предлагаем пройти революционный курс по гитаре.
Подарок от PrimaNota.Ru, забирай!