PrimaNota.ru - самый крупный в мире бесплатный архив песенных текстов, аккордов, табулатур и нот


Terrorvision - Hide The Dead Girl - текст песни, таба, видео

Регистрация Запомнить меня
Войти через:  Facebook Google Twitter Vk Yandex Mail.ru

Terrorvision - Hide The Dead Girl - текст песни, таба, видео

Печатать
Просмотров: 192
Уроки эстрадного вокала в Санкт-Петербурге
Terrorvision
Hide the dead girl
Regular Urban Survivors
Standard Tuning


Listen to the track for exact timings etc


_________________________________________________________________________________

Intro
Guitar 1
e|-2-2-2-/7--7-7-7-|-2-2-2-/7--7-7-7-|-----------------|-----------------|
B|-3-3-3-/8--8-8-8-|-3-3-3-/8--8-8-8-|-8-6---------6---|-8-6---------6---|
G|-2-2-2-/7--7-7-7-|-2-2-2-/7--7-7-7-|-----7-7---7---7-|-----7-7---7---7-|
D|-0-0-0--0--0-0-0-|-0-0-0--0--0-0-0-|-----------------|-----------------|
A|-----------------|-----------------|-----------------|-----------------|
E|-----------------|-----------------|-----------------|-----------------|
                                                                         |
Guitar 2                                                                 |
e|-2-2-2-/7--7-7-7-|-2-2-2-/7--7-----|---------------2-|-3-3-----3-3-3-3-|
B|-3-3-3-/8--8-8-8-|-3-3-3-/8--8-----|---------------3-|-3-3-----3-3-3-3-|
G|-2-2-2-/7--7-7-7-|-2-2-2-/7--7-----|-----0-------0-2-|-0-0-----0-0-0-0-|
D|-0-0-0--0--0-0-0-|-0-0-0--0--0-----|---2---2---0---0-|-0-0-----0-0-0-0-|
A|-----------------|-------------0-2-|-3-------1-------|-----------------|
E|-----------------|-----------------|-----------------|-----------------|

Guitar 1
e|-2-2-2-/7--7-7-7-|-2-2-2-/7--7-7-7-|-----------------|-----------------|
B|-3-3-3-/8--8-8-8-|-3-3-3-/8--8-8-8-|-8-6---------6---|-8-6---------6---|
G|-2-2-2-/7--7-7-7-|-2-2-2-/7--7-7-7-|-----7-7---7---7-|-----7-7---7---7-|
D|-0-0-0--0--0-0-0-|-0-0-0--0--0-0-0-|-----------------|-----------------|
A|-----------------|-----------------|-----------------|-----------------|
E|-----------------|-----------------|-----------------|-----------------|
                                                                         |
Guitar 2                                                                 |
e|-2-2-2-/7--7-7-7-|-2-2-2-/7--7-----|---------------2-|-3-3-----3-3-3-3-|
B|-3-3-3-/8--8-8-8-|-3-3-3-/8--8-----|---------------3-|-3-3-----3-3-3-3-|
G|-2-2-2-/7--7-7-7-|-2-2-2-/7--7-----|-----0-------0-2-|-0-0-----0-0-0-0-|
D|-0-0-0--0--0-0-0-|-0-0-0--0--0-----|---2---2---0---0-|-0-0-----0-0-0-0-|
A|-----------------|-------------0-2-|-3-------1-------|-----------------|
E|-----------------|-----------------|-----------------|-----------------|

e|-----------------|-----------------|---------------2-|-3-3-3---3-------|
B|-3---3-3---3-3-3-|-3---3-3---3-----|---------------3-|-3-3-3---3-------|
G|-2---2-2---2-2-2-|-1---1-1---1-----|-----0-------0-2-|-0-0-0---0-------|
D|-0---0-0---0-0-0-|-0---0-0---0-----|---2---2---0---0-|-0-0-0---0-------|
A|-----------------|-------------0-2-|-3-------1-------|-------------12\-|
E|-----------------|-----------------|-----------------|-3-3-3---3---12\-|
_________________________________________________________________________________

Verse 1
        "They may be able to pin the tail on the donkey, 
        but they can't get anything to hold us down.
        She was ducking for apples and we stick to that story, 
        we just held her breath for her and sadly she drowned.
        No body of evidence if you haven't got a body, 
        proofs in the pudding theres food for thought.
        We've all got a conscience makes us feel guilty 
        and we're sick of feeling guilty when we haven't beet caught."
PM____     ____     _____    ____     ____
e|-----------------|-----------------|-----3---3---3---|-----5-----5-----|
B|-----8-8-----8-8-|-----8-8-----8-8-|-----3---3---3---|-----8-----8-----|
G|-----7-7-----7-7-|-----7-7-----7-7-|-----4---4---4-4-|/6-6-6-----6-----| x4
D|-----6-6-----6-6-|-----6-6-----6-6-|---------------5-|/7-7-5-----5-----|
A|-----7-7-----7-7-|-----7-7-----7-7-|-5-5-----------5-|/7-7-------------|
E|-0-0-----0-0-----|-0-0-----0-0-----|-3-3-----------3-|/5-5-------------|
_________________________________________________________________________________

Chorus 1
"Gotta stay in one piece and stay out of jail, we gotta  hide the dead girl"
e|-----------------|-----------------|---------------2-|-3-3-3---3---3---|
B|-3---3-3---3-3-3-|-3---3-3---3-----|---------------3-|-3-3-3---3---3---|
G|-2---2-2---2-2-2-|-1---1-1---1-----|-----0-------0-2-|-0-0-0---0---0---|
D|-0---0-0---0-0-0-|-0---0-0---0-----|---2---2---0---0-|-0-0-0---0---0---|
A|-----------------|-------------0-2-|-3-------1-------|-----------------|
E|-----------------|-----------------|-----------------|-3-3-3---3---3---|

"Gotta lose the police who are hot on our trail, we've gotta hide the dead girl"
e|-----------------|-----------------|---------------2-|-3-3-3---3-------|
B|-3---3-3---3-3-3-|-3---3-3---3-----|---------------3-|-3-3-3---3-------|
G|-2---2-2---2-2-2-|-1---1-1---1-----|-----0-------0-2-|-0-0-0---0-------|
D|-0---0-0---0-0-0-|-0---0-0---0-----|---2---2---0---0-|-0-0-0---0-------|
A|-----------------|-------------0-2-|-3-------1-------|-------------12\-|
E|-----------------|-----------------|-----------------|-3-3-3---3---12\-|
_________________________________________________________________________________

Verse 2
        "I'll be a deamon as long as I've got my petroleum, 
        keep me going forward wheels going round.
        Desperate desperados searching for sanctuary, 
        staying our innocence til otherwise found."
PM____     ____     _____    ____     ____
e|-----------------|-----------------|-----3---3---3---|-----5-----5-----|
B|-----8-8-----8-8-|-----8-8-----8-8-|-----3---3---3---|-----8-----8-----|
G|-----7-7-----7-7-|-----7-7-----7-7-|-----4---4---4-4-|/6-6-6-----6-----| x2
D|-----6-6-----6-6-|-----6-6-----6-6-|---------------5-|/7-7-5-----5-----|
A|-----7-7-----7-7-|-----7-7-----7-7-|-5-5-----------5-|/7-7-------------|
E|-0-0-----0-0-----|-0-0-----0-0-----|-3-3-----------3-|/5-5-------------|
_________________________________________________________________________________

Chorus 2
"Gotta stay in one piece and stay out of jail, we gotta  hide the dead girl"
e|-----------------|-----------------|---------------2-|-3-3-3---3---3---|
B|-3---3-3---3-3-3-|-3---3-3---3-----|---------------3-|-3-3-3---3---3---|
G|-2---2-2---2-2-2-|-1---1-1---1-----|-----0-------0-2-|-0-0-0---0---0---|
D|-0---0-0---0-0-0-|-0---0-0---0-----|---2---2---0---0-|-0-0-0---0---0---|
A|-----------------|-------------0-2-|-3-------1-------|-----------------|
E|-----------------|-----------------|-----------------|-3-3-3---3---3---|

Guitar 1
e|-2-2-2-/7--7-7-7-|-2-2-2-/7--7-7-7-|-----------------|-----------------|
B|-3-3-3-/8--8-8-8-|-3-3-3-/8--8-8-8-|-8-6---------6---|-8-6---------6---|
G|-2-2-2-/7--7-7-7-|-2-2-2-/7--7-7-7-|-----7-7---7---7-|-----7-7---7---7-|
D|-0-0-0--0--0-0-0-|-0-0-0--0--0-0-0-|-----------------|-----------------|
A|-----------------|-----------------|-----------------|-----------------|
E|-----------------|-----------------|-----------------|-----------------|
                                                                         |
Guitar 2                                                                 |
e|-2-2-2-/7--7-7-7-|-2-2-2-/7--7-----|---------------2-|-3-3-----3-3-3-3-|
B|-3-3-3-/8--8-8-8-|-3-3-3-/8--8-----|---------------3-|-3-3-----3-3-3-3-|
G|-2-2-2-/7--7-7-7-|-2-2-2-/7--7-----|-----0-------0-2-|-0-0-----0-0-0-0-|
D|-0-0-0--0--0-0-0-|-0-0-0--0--0-----|---2---2---0---0-|-0-0-----0-0-0-0-|
A|-----------------|-------------0-2-|-3-------1-------|-----------------|
E|-----------------|-----------------|-----------------|-----------------|

Guitar 1
e|-2-2-2-/7--7-7-7-|-2-2-2-/7--7-7-7-|-----------------|-------------------------|
B|-3-3-3-/8--8-8-8-|-3-3-3-/8--8-8-8-|-8-6---------6---|-8-----8-----8-----8-----|
G|-2-2-2-/7--7-7-7-|-2-2-2-/7--7-7-7-|-----7-7---7---7-|-------------------------|
D|-0-0-0--0--0-0-0-|-0-0-0--0--0-0-0-|-----------------|-------------------------|
A|-----------------|-----------------|-----------------|-------------------------|
E|-----------------|-----------------|-----------------|-------------------------|
                                                                                 |
Guitar 2                                                                         |
e|-2-2-2-/7--7-7-7-|-2-2-2-/7--7-----|-----------------|-------------------------|
B|-3-3-3-/8--8-8-8-|-3-3-3-/8--8-----|-----------------|-------------------------|
G|-2-2-2-/7--7-7-7-|-2-2-2-/7--7-----|-----0---8-8-8-8-|-12-12-12-12-12-12-12-12-|
D|-0-0-0--0--0-0-0-|-0-0-0--0--0-----|---2---2-8-8-8-8-|-12-12-12-12-12-12-12-12-|
A|-----------------|-------------0-2-|-3-------6-6-6-6-|-10-10-10-10-10-10-10-10-|
E|-----------------|-----------------|-----------------|-------------------------|
_________________________________________________________________________________

Bridge
"And I'm driving, I'm driving fast"
PM____     ____     _____    ____    
e|-----------------|-----------------|-----------------|-----------------|
B|-----8-8-----8-8-|-----8-8-----8-8-|-----------------|-----------------|
G|-----7-7-----7-7-|-----7-7-----7-7-|-5-5--2------2-2-|-5-5--2------2-2-|
D|-----6-6-----6-6-|-----6-6-----6-6-|-5-5--2------2-2-|-5-5--2------2-2-|
A|-----7-7-----7-7-|-----7-7-----7-7-|-3-3--0------0-0-|-3-3--0------0-0-|
E|-0-0-----0-0-----|-0-0-----0-0-----|-----------------|-----------------|

"Find it exciting, oh yes I feind it a blast."
PM____     ____     _____    ____    
e|-----------------|-----------------|------2------2-2-|--------------------|
B|-----8-8-----8-8-|-----8-8-----8-8-|------2------2-2-|--------------------|
G|-----7-7-----7-7-|-----7-7-----7-7-|-5-5--2------2-2-|-5-5---14--14--14---|
D|-----6-6-----6-6-|-----6-6-----6-6-|-5-5--2------2-2-|-5-5---14--14--14---|
A|-----7-7-----7-7-|-----7-7-----7-7-|-3-3--0------0-0-|-3-3---12--12--12---|
E|-0-0-----0-0-----|-0-0-----0-0-----|-----------------|--------------------|
_________________________________________________________________________________

Chorus 3
"Gotta stay in one piece and stay out of jail, we gotta  hide the dead girl"
e|-----------------|-----------------|---------------2-|-3-3-3---3-------|
B|-3---3-3---3-3-3-|-3---3-3---3-----|---------------3-|-3-3-3---3-------|
G|-2---2-2---2-2-2-|-1---1-1---1-----|-----0-------0-2-|-0-0-0---0-------|
D|-0---0-0---0-0-0-|-0---0-0---0-----|---2---2---0---0-|-0-0-0---0-------|
A|-----------------|-------------0-2-|-3-------1-------|-----------------|
E|-----------------|-----------------|-----------------|-3-3-3---3-------|

"Gotta lose the police who are hot on our trail, we've gotta hide the dead girl"
e|-----------------|-----------------|---------------2-|-3-3-3---3---3-3-|
B|-3---3-3---3-3-3-|-3---3-3---3-----|---------------3-|-3-3-3---3---3-3-|
G|-2---2-2---2-2-2-|-1---1-1---1-----|-----0-------0-2-|-0-0-0---0---0-0-|
D|-0---0-0---0-0-0-|-0---0-0---0-----|---2---2---0---0-|-0-0-0---0---0-0-|
A|-----------------|-------------0-2-|-3-------1-------|-----------------|
E|-----------------|-----------------|-----------------|-3-3-3---3---3-3-|

"Gotta stay in one piece and stay out of jail, we gotta  hide the dead girl"
e|-----------------|-----------------|---------------2-|-3-3-3---3-------|
B|-3---3-3---3-3-3-|-3---3-3---3-----|---------------3-|-3-3-3---3-------|
G|-2---2-2---2-2-2-|-1---1-1---1-----|-----0-------0-2-|-0-0-0---0-------|
D|-0---0-0---0-0-0-|-0---0-0---0-----|---2---2---0---0-|-0-0-0---0-------|
A|-----------------|-------------0-2-|-3-------1-------|-----------------|
E|-----------------|-----------------|-----------------|-3-3-3---3-------|

"Gotta lose the police who are hot on our trail, we've gotta hide the dead girl"
e|-----------------|-----------------|---------------2-|-3-3-3---3---3-3-|
B|-3---3-3---3-3-3-|-3---3-3---3-----|---------------3-|-3-3-3---3---3-3-|
G|-2---2-2---2-2-2-|-1---1-1---1-----|-----0-------0-2-|-0-0-0---0---0-0-|
D|-0---0-0---0-0-0-|-0---0-0---0-----|---2---2---0---0-|-0-0-0---0---0-0-|
A|-----------------|-------------0-2-|-3-------1-------|-----------------|
E|-----------------|-----------------|-----------------|-3-3-3---3---3-3-|

"Gotta stay in one piece and stay out of jail, we gotta  hide the dead girl"
Guitar 1
e|-2-2-2-/7--7-7-7-|-2-2-2-/7--7-7-7-|-----------------|-----------------|
B|-3-3-3-/8--8-8-8-|-3-3-3-/8--8-8-8-|-8-6---------6---|-8-6---------6---|
G|-2-2-2-/7--7-7-7-|-2-2-2-/7--7-7-7-|-----7-7---7---7-|-----7-7---7---7-|
D|-0-0-0--0--0-0-0-|-0-0-0--0--0-0-0-|-----------------|-----------------|
A|-----------------|-----------------|-----------------|-----------------|
E|-----------------|-----------------|-----------------|-----------------|
                                                                         |
Guitar 2                                                                 |
e|-2-2-2-/7--7-7-7-|-2-2-2-/7--7-----|---------------2-|-3-3-----3-3-3-3-|
B|-3-3-3-/8--8-8-8-|-3-3-3-/8--8-----|---------------3-|-3-3-----3-3-3-3-|
G|-2-2-2-/7--7-7-7-|-2-2-2-/7--7-----|-----0-------0-2-|-0-0-----0-0-0-0-|
D|-0-0-0--0--0-0-0-|-0-0-0--0--0-----|---2---2---0---0-|-0-0-----0-0-0-0-|
A|-----------------|-------------0-2-|-3-------1-------|-----------------|
E|-----------------|-----------------|-----------------|-----------------|

"Gotta lose the police who are hot on our trail, we've gotta hide the dead girl"
Guitar 1
e|-2-2-2-/7--7-7-7-|-2-2-2-/7--7-7-7-|-----------------|-----------------|
B|-3-3-3-/8--8-8-8-|-3-3-3-/8--8-8-8-|-8-6---------6---|-8-6---------6---|
G|-2-2-2-/7--7-7-7-|-2-2-2-/7--7-7-7-|-----7-7---7---7-|-----7-7---7---7-|
D|-0-0-0--0--0-0-0-|-0-0-0--0--0-0-0-|-----------------|-----------------|
A|-----------------|-----------------|-----------------|-----------------|
E|-----------------|-----------------|-----------------|-----------------|
                                                                         |
Guitar 2                                                                 |
e|-2-2-2-/7--7-7-7-|-2-2-2-/7--7-----|---------------2-|-3-3-----3-3-3-3-|
B|-3-3-3-/8--8-8-8-|-3-3-3-/8--8-----|---------------3-|-3-3-----3-3-3-3-|
G|-2-2-2-/7--7-7-7-|-2-2-2-/7--7-----|-----0-------0-2-|-0-0-----0-0-0-0-|
D|-0-0-0--0--0-0-0-|-0-0-0--0--0-----|---2---2---0---0-|-0-0-----0-0-0-0-|
A|-----------------|-------------0-2-|-3-------1-------|-----------------|
E|-----------------|-----------------|-----------------|-----------------|


"Gotta stay in one piece and stay out of jail, we gotta  hide the dead girl"
Guitar 1
e|-2-2-2-/7--7-7-7-|-2-2-2-/7--7-7-7-|-----------------|-----------------|
B|-3-3-3-/8--8-8-8-|-3-3-3-/8--8-8-8-|-8-6---------6---|-8-6---------6---|
G|-2-2-2-/7--7-7-7-|-2-2-2-/7--7-7-7-|-----7-7---7---7-|-----7-7---7---7-|
D|-0-0-0--0--0-0-0-|-0-0-0--0--0-0-0-|-----------------|-----------------|
A|-----------------|-----------------|-----------------|-----------------|
E|-----------------|-----------------|-----------------|-----------------|
                                                                         |
Guitar 2                                                                 |
e|-2-2-2-/7--7-7-7-|-2-2-2-/7--7-----|---------------2-|-3-3-----3-3-3-3-|
B|-3-3-3-/8--8-8-8-|-3-3-3-/8--8-----|---------------3-|-3-3-----3-3-3-3-|
G|-2-2-2-/7--7-7-7-|-2-2-2-/7--7-----|-----0-------0-2-|-0-0-----0-0-0-0-|
D|-0-0-0--0--0-0-0-|-0-0-0--0--0-----|---2---2---0---0-|-0-0-----0-0-0-0-|
A|-----------------|-------------0-2-|-3-------1-------|-----------------|
E|-----------------|-----------------|-----------------|-----------------|

"Gotta lose the police who are hot on our trail, we've gotta hide the dead" 
e|-2-2-2-/7--7-7-7-|-2-2-2-/7--7-----|-----------------|-----------------|
B|-3-3-3-/8--8-8-8-|-3-3-3-/8--8-----|-----------------|-----------------|
G|-2-2-2-/7--7-7-7-|-2-2-2-/7--7-----|-0---------------|-0---------------|
D|-0-0-0--0--0-0-0-|-0-0-0--0--0-----|-2---------------|-0---------------|
A|-----------------|-------------0-2-|-3---------------|-1---------------|
E|-----------------|-----------------|-----------------|-----------------|

"girl"
e|-2---------------|
B|-3---------------|
G|-2---------------|
D|-0---------------|
A|-----------------|
E|-----------------|

_________________________________________________________________________________




Enjoy
Please rate and leave constructive comments/feedback
paddyonthetoadstool@hotmail.com April 2015
Добавлено: 22.08.2015
Другие материалы по этой песне:
  • Аккорды и текст

Страница создана 19.05.2012
http://primanota.ru/terrorvision/hide-the-dead-girl-chords.htm
Привет, Гость.
Предлагаем пройти революционный курс по гитаре.
Подарок от PrimaNota.Ru, забирай!