PrimaNota.ru - самый крупный в мире бесплатный архив песенных текстов, аккордов, табулатур и нот


Terrorvision - Enteralterego - аккорды и текст, таба, видео

Регистрация Запомнить меня
Войти через:  Facebook Google Twitter Vk Yandex Mail.ru

Terrorvision - Enteralterego - аккорды и текст, таба, видео

Печатать
Просмотров: 139
Enteralterego
Terrorvision
From WJAMES@uk.oracle.com Thu May  8 10:08:17 1997
Date: 01 Apr 97 10:54:14 +0100
From: William James 
To: guitar@nevada.edu
Subject: TAB:  by 

 'ENTERALTEREGO' By Terrovision 
(Taken from the Regular Urban Survivors album) 
 
Transcribed by Will James  
Notes: A great first track off their new album 
 
[INTRO] 
(Guitar 1 plays riff, Guitar 2 plays muted power chords) 
 
   D                 Bb                  D                 G       A 
E|-----------------|-----------------|-----------------|-----------------| 
B|-----------------|-----------------|-----------------|-----------------| 
G|-----------------|-----------------|-----------------|-----------------| 
D|-----2-2-3-3-2-2-|-----------------|-----2-2-3-3-2-2-|-----------------| 
A|-5-5-------------|-1-1-1-3-1-1-1-1-|-5-5-------------|-----------------| 
E|-----------------|-----------------|-----------------|-3-3-3-3-5-5-5-5-| 
 
   D                 Bb                  D                 G       A 
E|-----------------|-----------------|-----------------|-----------------| 
B|-----------------|-----------------|-----------------|-----------------| 
G|-----2-2-3-3-3-3-|-5-5-5-3-3-3-2-2-|-----------------|-----------------| 
D|-----------------|-----------------|-----2-2-3-3-2-2-|-----------------| 
A|-5-5-------------|-----------------|-5-5-------------|-----------------| 
E|-----------------|-----------------|-----------------|-3-3-3-3-5-5-5-5-| 
 
[VERSE 1] 
Dm: x57765  Bbm: 688666 
 
Dm Dm Bbm Bbm           G G G G A A A A 
Spacy sunday....      ..there isn't time 
 
                        D|---------5-5-----| 
                        A|-----5-5-----5-5-| 
Dm Dm A#m A#m           E|-3-3-------------| 
Cover your ears....     ...friend of mine 
 
[CHORUS] 
D              Bb              D 
She's got some weird imagination 
    G             A 
She imagines what she likes 'cos 
D                Bb                                    D 
She reckons that she comes from some outer-space station 
    G            A 
She can say what she likes 'cos 
 
[INTRO RIFF] (1/2 of it  i.e. 4 bars not all 8 bars) 
 
[VERSE 2] 
Hazy monday friend of mine 
Is going to cut the red wire but there isn't time 
To cover your ears and protect your mind 
>From hazy monday friend of mine 
 
[CHORUS] 
She says that she's made from a combination 
She can say what she likes 'cos 
It's a mixture of dust and aggravation 
She can be what she likes but 
 
[INTRO RIFF] 
 
[BRIDGE] 
Clean chord strums (slight delay on chords) 
 
          F 
When your train comes off the rails 
        Em 
There's not a lot you can do 
        Am 
If your ship starts to sink 
             G 
Then you can swim til you're blue 
       F                         Em   G   A AAAAAA (distorted) 
But it isn't any good. No matter how good it is for you 
 
[SOLO] 
Same chords (see above) over the solo 
1 sec delay (?) 
                                                             p 

E|-----------------------------------------------13..13b15r13-12\--------------
--.. 
B|---------------p-----------------p-------12-15----------------------10----10-
--.. 
G|-2/10..10b12r10-9--9/14..14b16r14-12--12------------------------/12-12b14-12b
14.. 
 
[VERSE 3] 
Guitar picks chords: 
Dm: x5776x 
Bbm: x1331x 
G: 3554xx 
A: 5776xx 
 
Dm            Bbm 
Lazy Tuesday, Friend of mine 
Dm                                G           A 
Is going to cut the red wire, but there isn't time 
   Dm                  Bbm 
to cover your ears and protect your mind 
     Dm             G G G G G G 
>From lazy tuesday friend of mine 
 
[CHORUS] 
To cover your ears and protect mind,  
from 
A friend of a friend  
of a friend of mine, 
bomb 
 
[CHORUS] *[play intro riff over this]* 
it's been so ever such a long, long time 
bomb 
now i'm so sorry my friend my mind's  
gone 
 
E|-----------------| 
B|-10-- ..---------| 
G|-12b14..---------| 
 
[INTRO] Riff played like so: 
 
   E                 C                   E                 A       B 
E|-----------------|-------------------|-----------------|-----------------| 
B|-----------------|-------------------|-----------------|-----------------| 
G|-----------------|-------------------|-----------------|-----------------| 
D|-----4-4-5-5-4-4-|-------------------|-----4-4-5-5-4-4-|-----------------| 
A|-7-7-------------|-3-3-3-5-3-3-3-3---|-7-7-------------|-----------------| 
E|-----------------|-------------------|-----------------|-5-5-5-5-7-7-7-7-| 
 
   E                 C                  E                 B             E 
E|-----------------|-------------------|-----------------|-7----..---------| 
B|-----------------|-------------------|-----------------|-10b12..------9\-| 
G|-----4-4-5-5-5-5-|-7-7-7-5-5-5-4-4---|-----------------|------..------9\-| 
D|-----------------|-------------------|-----4-4-5-5-4-4-|------..------9\-| 
A|-7-7-------------|-------------------|-7-7-------------|-----------------| 
E|-----------------|-------------------|-----------------|-----------------| 
                                                           ending...  
                                                           do bend several 
times 
 
 
No timings on here really.. you need to listen to the record for number of 
bends 
at end of solo and end of song... 
 
Any corrections etc.. etc..  
 
Will.
Добавлено: 31.03.2012
Другие материалы по этой песне:
  • Аккорды и текст

Страница создана 24.02.2012
http://primanota.ru/terrorvision/enteralterego-chords.htm
Привет, Гость.
Предлагаем пройти революционный курс по гитаре.
Подарок от PrimaNota.Ru, забирай!