PrimaNota.ru - самый крупный в мире бесплатный архив песенных текстов, аккордов, табулатур и нот


Terrorvision - Easy - таба, видео

Регистрация Запомнить меня
Войти через:  Facebook Google Twitter Vk Yandex Mail.ru

Terrorvision - Easy - таба, видео

Печатать
Просмотров: 113
Terrorvision
Easy
Regular Urban Survivors
Standard Tuning
Tabbed by Phil Tweedie

Listen to the track for exact timings etc
_________________________________________________________________________________

Verse 1
"Living out three separate lives,with nothing else to do besides, it's easy"
e|-----3-------3---|-----2-------2---|-----0-------0---|-----0-------0---|
B|-----3-------3---|-----3-------3---|-----0-------0---|-----0-------0---|
G|-----4-------4---|-----4-------4---|-----1-------1---|-----0-------0---|
D|-----5-------5---|-4-4-4-4-4-4-4-4-|-----2-------2---|-----0-------0---|
A|-5-5-5-5-5-5-5-5-|-2-2-2-2-2-2-2-2-|-2-2-2-2-2-2-2-2-|-2-2-2-2-2-2-2-2-|
E|-3-3-3-3-3-3-3-5-|-----------------|-0-0-0-0-0-0-0-0-|-0-0-0-0-0-0-0-0-|

"They'd wrote Bradford off the map,then all that old commercial crap, it's easy."
e|-----3-------3---|-----2-------2---|-----0-------0---|-----0-------0---|
B|-----3-------3---|-----3-------3---|-----0-------0---|-----0-------0---|
G|-----4-------4---|-----4-------4---|-----1-------1---|-----0-------0---|
D|-----5-------5---|-4-4-4-4-4-4-4-4-|-----2-------2---|-----0-------0---|
A|-5-5-5-5-5-5-5-5-|-2-2-2-2-2-2-2-2-|-2-2-2-2-2-2-2-2-|-2-2-2-2-2-2-2-2-|
E|-3-3-3-3-3-3-3-5-|-----------------|-0-0-0-0-0-0-0-0-|-0-0-0-0-0-0-0-0-|

"Hassle bound? Not me, I'm happy and it's easy and it's free."
e|-----------------|-----------------|-----------------|-----------------|
B|-----------------|---------0-------|-----------------|---------3-------|
G|-----2-------0---|-----1-----1---1-|-----2-------0---|-----5-----5---5-|
D|---2---2---2---2-|-------2-----2---|---2---2---2---2-|---4---4-----4---|
A|-0-------3-------|-2-2-------------|-0-------3-------|-5---------------|
E|-----------------|-0-0-------------|-----------------|-----------------|
_________________________________________________________________________________

Verse 2
"They'd nothing really good to say,they're here tomorrow gone today, it's easy,"
e|-----3-------3---|-----2-------2---|-----0-------0---|-----0-------0---|
B|-----3-------3---|-----3-------3---|-----0-------0---|-----0-------0---|
G|-----4-------4---|-----4-------4---|-----1-------1---|-----0-------0---|
D|-----5-------5---|-4-4-4-4-4-4-4-4-|-----2-------2---|-----0-------0---|
A|-5-5-5-5-5-5-5-5-|-2-2-2-2-2-2-2-2-|-2-2-2-2-2-2-2-2-|-2-2-2-2-2-2-2-2-|
E|-3-3-3-3-3-3-3-5-|-----------------|-0-0-0-0-0-0-0-0-|-0-0-0-0-0-0-0-0-|

"Setting off and duck the flack, flowed like water off the back, it's easy."
e|-----3-------3---|-----2-------2---|-----0-------0---|-----0-------0---|
B|-----3-------3---|-----3-------3---|-----0-------0---|-----0-------0---|
G|-----4-------4---|-----4-------4---|-----1-------1---|-----0-------0---|
D|-----5-------5---|-4-4-4-4-4-4-4-4-|-----2-------2---|-----0-------0---|
A|-5-5-5-5-5-5-5-5-|-2-2-2-2-2-2-2-2-|-2-2-2-2-2-2-2-2-|-2-2-2-2-2-2-2-2-|
E|-3-3-3-3-3-3-3-5-|-----------------|-0-0-0-0-0-0-0-0-|-0-0-0-0-0-0-0-0-|

"Hassle bound? Not me, I'm happy and it's easy and it's free."
e|-----------------|-----------------|-----------------|-----------------|
B|-----------------|---------0-------|-----------------|---------3-------|
G|-----2-------0---|-----1-----1---1-|-----2-------0---|-----5-----5---5-|
D|---2---2---2---2-|-------2-----2---|---2---2---2---2-|---4---4-----4---|
A|-0-------3-------|-2-2-------------|-0-------3-------|-5---------------|
E|-----------------|-0-0-------------|-----------------|-----------------|
_________________________________________________________________________________

Solo
Guitar 1
e|-----------------|-----------------|-----------------|-----------------|
B|---------3-------|-----------------|-----------------|-----------5---5-|
G|-----5-----5-----|-----------------|-----------------|-----------7b--7b|
D|---4---4---------|-----------------|-----------------|-----------------|
A|-5-----------12\-|-----------------|-2------(2)------|-----------------|
E|-------------12\-|\3-------3-5br---|-----------0-3---|-0---------------|
                                                                         |
Guitar 2                                                                 |
e|-----------------|-----3-------3---|---2---------2---|-----------------|
B|-----------------|-----3-------3---|---3---------3---|-----------------|
G|-----------------|-----4-------4---|---4---------4---|-9-9-9-9-9-------|
D|-----------------|-----5-------5---|-4-4-4-4-4-4-4-4-|-9-9-9-9-9-5---4-|
A|-----------------|-5-5-5-5-5-5-5-5-|-2-2-2-2-2-2-2-2-|-7-7-7-7-7-5---4-|
E|-----------------|-3-3-3-3-3-3-3-5-|-----------------|-0-0-0-0-0-3---2-|

Guitar 1
e|-----------------|-----------------|-----------------|-----------------|
B|-5---------------|-----------------|----------00-5-7-|-5-----\---------|
G|-7b--7-----------|-----------------|-----------------|-----------5---4-|
D|-----------------|-------------0-2-|-----------------|-----------5---4-|
A|-----------12\---|---------0h2-----|-2---------------|-----------3---2-|
E|-----------12\---|-3---------------|-----------------|-----------------|
                                                                         |
Guitar 2                                                                 |
e|-----------------|-----3-------3---|---2---------2---|-----------------|
B|-----------------|-----3-------3---|---3---------3---|-----------------|
G|-----------------|-----4-------4---|---4---------4---|-9-9-9-9-9-5---4-|
D|-9-9-9-9-9-5---4-|-----5-------5---|-4-4-4-4-4-4-4-4-|-9-9-9-9-9-5---4-|
A|-7-7-7-7-7-5---4-|-5-5-5-5-5-5-5-5-|-2-2-2-2-2-2-2-2-|-7-7-7-7-7-3---2-|
E|-0-0-0-0-0-3---2-|-3-3-3-3-3-3-3-5-|-----------------|-0-0-0-0-0-------|

Guitar 1
PM____     _        ____     _        ____     _
e|-----------------|-----------------|-----------------|
B|-----------------|-----------------|-----------------|
G|-----9\----------|-----9\----5---4-|-----9\----------|
D|-----9\----5---4-|-----9\----5---4-|-----9\----------|
A|-----7\----5---4-|-----7\----3---2-|-----7\----------|
E|-0-0-----0-3---2-|-0-0-----0-------|-0-0-----0-0---2-|
                                                       |
Guitar 2                                               |
PM____     _        ____     _        ____     _       |
e|-----------------|-----------------|-----------------|
B|-----------------|-----------------|-----------------|
G|-----9\----------|-----9\----5---4-|-----9\----------|
D|-----9\----5---4-|-----9\----5---4-|-----9\----------|
A|-----7\----5---4-|-----7\----3---2-|-----7\----------|
E|-0-0-----0-3---2-|-0-0-----0-------|-0-0-----0-0---2-|
_________________________________________________________________________________

Verse 3
"Travelling round is really nice, pay the sights then see the price, it's easy,"
Guitar 1
e|-----------------|-----------------|-----------------|-----------------|
B|-----------------|-----------------|-----------------|-----------------|
G|-----------------|-----------------|-----------------|-----------------|
D|-----------------|-----------------|-----------------|-----------------|
A|-----------------|-----------------|-----------------|-----------------|
E|-3---------------|-----------------|-----------------|-----------------|
                                                                         |
Guitar 2  Clean                                                          |
e|-3---3-3-3-3-3-3-|-----------------|-0-0-0-0-0-0-0-0-|-0-0-0-0-0-0-0-0-|
B|-3---3-3-3-3-3-3-|-3---3-3-3-3-3-3-|-0-0-0-0-0-0-0-0-|-0-0-0-0-0-0-0-0-|
G|-0---0-0-0-0-0-0-|-4---4-4-4-4-4-4-|-1-1-1-1-1-1-1-1-|-0-0-0-0-0-0-0-0-|
D|-0---0-0-0-0-0-0-|-4---4-4-4-4-4-4-|-2-2-2-2-2-2-2-2-|-0-0-0-0-0-0-0-0-|
A|-----------------|-2---2-2-2-2-2-2-|-2-2-2-2-2-2-2-2-|-2-2-2-2-2-2-2-2-|
E|-3---3-3-3-3-3-3-|-----------------|-0-0-0-0-0-0-0-0-|-0-0-0-0-0-0-0-0-|

"Take it in then put it out, it's simply what it's all about, it's easy,"
e|-3-3-3-3-3-3-3-3-|-----------------|-0-0-0-0-0-0-0-0-|-0-0-0-0-0-0-0-0-|
B|-3-3-3-3-3-3-3-3-|-3---3-3-3-3-3-3-|-0-0-0-0-0-0-0-0-|-0-0-0-0-0-0-0-0-|
G|-0-0-0-0-0-0-0-0-|-4---4-4-4-4-4-4-|-1-1-1-1-1-1-1-1-|-0-0-0-0-0-0-0-0-|
D|-0-0-0-0-0-0-0-0-|-4---4-4-4-4-4-4-|-2-2-2-2-2-2-2-2-|-0-0-0-0-0-0-0-0-|
A|-----------------|-2---2-2-2-2-2-2-|-2-2-2-2-2-2-2-2-|-2-2-2-2-2-2-2-2-|
E|-3-3-3-3-3-3-3-3-|-----------------|-0-0-0-0-0-0-0-0-|-0-0-0-0-0-0-0-0-|

"Stick together till the end, only the best know to pretend, it's easy,"
e|---------3-------|---------2-------|---------0-------|---------0-------|
B|-----------3-----|-----------3-----|-----------0-----|-----------0-----|
G|-----0-------0---|-----4-------4---|-----1-------1---|-----0-------0---|
D|---0---0-------0-|---4---4-------4-|---2---2-------2-|---0---0-------0-|
A|-----------------|-2---------------|-----------------|-----------------|
E|-3---------------|-----------------|-0---------------|-0---------------|

"If I could live my life again, I'd influence a lot more friends, it's easy."
                                      Dist on
PM                                    _________________
e|---------3-------|---------2-------|-----------------|-----------------|
B|-----------3-----|-----------3-----|-----------------|-------5-7br-5-7-|
G|-----0-------0---|-----4-------4---|-----------------|-------5-7br-5-7-|
D|---0---0-------0-|---4---4-------4-|-----------------|------5----------|
A|-----------------|-2---------------|-2-2-2-2-2-2-2-2-|-2-5h7-----------|
E|-3---------------|-----------------|-0-0-0-0-0-0-0-0-|-0---------------|

"Hassle bound? Not me, I'm happy and it's easy and it's free."
e|-----------------|-----------------|-----------------|-----------------|
B|-----------------|---------0-------|-----------------|---------3-------|
G|-----2-------0---|-----1-----1---1-|-----2-------0---|-----5-----5---5-|
D|---2---2---2---2-|-------2-----2---|---2---2---2---2-|---4---4-----4---|
A|-0-------3-------|-2-2-------------|-0-------3-------|-5---------------|
E|-----------------|-0-0-------------|-----------------|-----------------|

"Hassle bound? Not me, I'm happy and it's easy and it's free."
e|-----------------|-----------------|-----------------|-----------------|
B|-----------------|---------0-------|-----------------|---------3-------|
G|-----2-------0---|-----1-----1---1-|-----2-------0---|-----5-----5---5-|
D|---2---2---2---2-|-------2-----2---|---2---2---2---2-|---4---4-----4---|
A|-0-------3-------|-2-2-------------|-0-------3-------|-5---------------|
E|-----------------|-0-0-------------|-----------------|-----------------|

e|-----------------|
B|---------3-------|
G|-----5-----5---5-|
D|---4---4-----4---|
A|-5---------------|
E|-----------------|
_________________________________________________________________________________

Outro
"Bah da bah dada bah" (et al)
e|-----3-------3---|-----1-------1---|-----0-------0---|-----------------|
B|-----3-------3---|-----1-------1---|-----0-------0---|-----------------|
G|-----4-------4---|-----2-------2---|-----0-------0---|-7-7-7-7-7-7-7-7-|
D|-----5-------5---|-----3-------3---|-----2-------2---|-7-7-7-7-7-7-7-7-|
A|-5-5-5-5-5-5-5-5-|-3-3-3-3-3-3-3-3-|-2-2-2-2-2-2-2-2-|-5-5-5-5-5-5-5-5-|
E|-3-3-3-3-3-3-3-3-|-1-1-1-1-1-1-1-1-|-0-0-0-0-0-0-0-0-|-----------------|

e|-----3-------3---|-----1-------1---|-----0-------0---|-----------------|
B|-----3-------3---|-----1-------1---|-----0-------0---|-----------------|
G|-----4-------4---|-----2-------2---|-----0-------0---|-7-7-7-7-7-7-7-7-|
D|-----5-------5---|-----3-------3---|-----2-------2---|-7-7-7-7-7-7-7-7-|
A|-5-5-5-5-5-5-5-5-|-3-3-3-3-3-3-3-3-|-2-2-2-2-2-2-2-2-|-5-5-5-5-5-5-5-5-|
E|-3-3-3-3-3-3-3-3-|-1-1-1-1-1-1-1-1-|-0-0-0-0-0-0-0-0-|-----------------|

Guitar 1
e|-----------------|-----------------|-----------------|-----------------|
B|-----------------|-----------------|-----------------|-----------------|
G|-----------------|-----------------|-----------------|-----------------|
D|-----------------|-----------------|-----------2-b-r-|-0---------------|
A|-----------------|-----------------|-----------------|-----------------|
E|-3-------3-5-b-r-|-1-------1-3-b-r-|-0-------0-------|-------------12\-|
                                                                         |
Guitar 2                                                                 |
e|-----3-------3---|-----1-------1---|-----0-------0---|-----------------|
B|-----3-------3---|-----1-------1---|-----0-------0---|-----------------|
G|-----4-------4---|-----2-------2---|-----0-------0---|-7-7-7-7-7-7-7-7-|
D|-----5-------5---|-----3-------3---|-----2-------2---|-7-7-7-7-7-7-7-7-|
A|-5-5-5-5-5-5-5-5-|-3-3-3-3-3-3-3-3-|-2-2-2-2-2-2-2-2-|-5-5-5-5-5-5-5-5-|
E|-3-3-3-3-3-3-3-3-|-1-1-1-1-1-1-1-1-|-0-0-0-0-0-0-0-0-|-----------------|

Guitar 1
e|-----------------|-----------------|-----------------|-----------------|
B|-----------------|-----------------|-----------------|-----------------|
G|-----------------|-----------------|-----------------|-----------------|
D|-----------------|-----------------|-----------2-b-r-|-0------------2/-|
A|-----------------|-----------------|-----------------|-----------------|
E|-3-------3-5-b-r-|-1-------1-3-b-r-|-0-------0-------|-----------------|
                                                                         |
Guitar 2                                                                 |
e|-----3-------3---|-----1-------1---|-----0-------0---|-----------------|
B|-----3-------3---|-----1-------1---|-----0-------0---|-----------------|
G|-----4-------4---|-----2-------2---|-----0-------0---|-7-7-7-7-7-7-7-7-|
D|-----5-------5---|-----3-------3---|-----2-------2---|-7-7-7-7-7-7-7-7-|
A|-5-5-5-5-5-5-5-5-|-3-3-3-3-3-3-3-3-|-2-2-2-2-2-2-2-2-|-5-5-5-5-5-5-5-5-|
E|-3-3-3-3-3-3-3-3-|-1-1-1-1-1-1-1-1-|-0-0-0-0-0-0-0-0-|-----------------|

Guitar 1
e|-----------------|
B|-----------------|
G|-----------------|
D|-5---------------|
A|-----------------|
E|-----------------|
                   |
Guitar 2           |
e|-3---------------|
B|-3---------------|
G|-4---------------|
D|-5---------------|
A|-5---------------|
E|-3---------------|
_________________________________________________________________________________



Enjoy
Please rate and leave constructive comments/feedback
paddyonthetoadstool@hotmail.com April 2015
Добавлено: 13.09.2015
Другие материалы по этой песне:
  • Аккорды и текст

Страница создана 13.09.2015
http://primanota.ru/terrorvision/easy-chords.htm
Привет, Гость.
Предлагаем пройти революционный курс по гитаре.
Подарок от PrimaNota.Ru, забирай!