PrimaNota.ru - самый крупный в мире бесплатный архив песенных текстов, аккордов, табулатур и нот


Terror - Another Face - текст песни, таба, видео

Регистрация Запомнить меня
Войти через:  Facebook Google Twitter Vk Yandex Mail.ru

Terror - Another Face - текст песни, таба, видео

Печатать
Просмотров: 136
Band: Terror
Song: Another Face
Album: Lowest of The Low
Tuning: Full Step Down (DGCFAD)
Tabber: I<33Hobos

 -Key-
~ = let ring
 .= palm muting 
 /= slide

Intro: X 1

D-|------------------------------------------------------|
A-|------------------------------------------------------|
F-|------------------------------------------------------|
C-|-----7-----------7------------------------------------|
G-|-2-2-5-2-2-8-2-2-5-2-2-7-2-8-5-2~---------------------|
D-|-0-0---0-0-6-0-0---0-0-5-0-6-3-0~---------------------|
    . .   . .   . .   . .   . 

verse: X 6

D-|--------------------------------------------------------|
A-|--------------------------------------------------------|
F-|--------------------------------------------------------|
C-|--------------------------------------------------------|
G-|-7-2-2-2--7-2-2-2--7-2-2-2--7-5-7-7/8-8-8-8-------------|
D-|-5-0-0-0--5-0-0-0--5-0-0-0--5-3-5-5/6-6-6-6-------------|


X 2

D-|---------------------------------------------------------------|
A-|---------------------------------------------------------------|
F-|---------------------------------------------------------------|
C-|---------------------------------------------------------------|
G-|-5-7-(X 10)-8-7-5-7-7-7-7-7-7-8--(7-2)-(play before breakdown)-|
D-|-3-5--------6-5-3-5-5-5-5-5-5-6--(5-0)-------------------------|


back to verse X 2 then this X 1 and then play regular verse once more.

D-|-----------------------------------------------|
A-|-----------------------------------------------|
F-|-----------------------------------------------|
C-|-----9-9-----9-9-----9-9-----------------------|
G-|-7-2-7-7-7-2-7-7-7-2-7-7-7-5-7-7/8-8-8-8-------|
D-|-5-0-----5-0-----5-0-----5-3-5-5/6-6-6-6-------|

breakdown: X 6

D-|------------------------------------------------------------|
A-|------------------------------------------------------------|
D-|------------------------------------------------------------|
C-|-----------7-----------7------------------------------------|
G-|-2-(X 14)--5-2-2-8-2-2-5-2-2-7-2-8-5-2----------------------|
D-|-0-----------0-0-6-0-0---0-0-5-0-6-3-0----------------------|
    .           . .   . .   . .   .     .   (patterns change)

last 2 times let the d chord ring.
Добавлено: 26.04.2012
Другие материалы по этой песне:
  • Аккорды и текст

Страница создана 26.04.2012
http://primanota.ru/terror/another-face-chords.htm
Привет, Гость.
Предлагаем пройти революционный курс по гитаре.
Подарок от PrimaNota.Ru, забирай!