PrimaNota.ru - самый крупный в мире бесплатный архив песенных текстов, аккордов, табулатур и нот


Terranigma - Underworld - таба, видео

Регистрация Запомнить меня
Войти через:  Facebook Google Twitter Vk Yandex Mail.ru

Terranigma - Underworld - таба, видео

Печатать
Просмотров: 88
Уроки эстрадного вокала в Санкт-Петербурге
-------------------------------------------------------------------------------
                             Underworld - Terranigma OST
-------------------------------------------------------------------------------
Tabbed by: iHack89
E-mail:

Tuning: DROP C

d|---------------------------------------------------------------------------|
A|----12h14p13----9--------------12h14p13----9-------------------------------|
F|-------------------8/13-----------------------11\8-------------------------|
C|---------------------------------------------------------------------------|
G|---------------------------------------------------------------------------|
C|---------------------------------------------------------------------------|

d|---------------------------------------------------------------------------|
A|---------------------------------------------------------------------------|
F|----8p6h8--9--11--9--11--13--11--9--11--9--8-------------------------------|
C|---------------------------------------------------------------------------|
G|---------------------------------------------------------------------------|
C|---------------------------------------------------------------------------|

d|---------------------------------------------------------------------------|
A|----/11--9-----/16~~--/11--9-----------------------/19--17--16--17--16~~---|
F|-----------8----------------8--11--13--15--16--18~-------------------------|
C|---------------------------------------------------------------------------|
G|---------------------------------------------------------------------------|
C|---------------------------------------------------------------------------|

d|----16--18--18--16--16--18--19--18--16--14--16h14p11~~---------------------|
A|---------------------------------------------------------------------------|
F|---------------------------------------------------------------------------|
C|---------------------------------------------------------------------------|
G|---------------------------------------------------------------------------|
C|---------------------------------------------------------------------------|

d|----16--18--18--16--16--18--19--18--16--14--16p14h16~~---------------------|
A|---------------------------------------------------------------------------|
F|---------------------------------------------------------------------------|
C|---------------------------------------------------------------------------|
G|---------------------------------------------------------------------------|
C|---------------------------------------------------------------------------|

d|----16--18--18--16--16--18--19--18--16--14--23p21h23~~~--------------------|
A|---------------------------------------------------------------------------|
F|---------------------------------------------------------------------------|
C|---------------------------------------------------------------------------|
G|---------------------------------------------------------------------------|
C|---------------------------------------------------------------------------|

d|----16--18--18--16--16--18--19--18--16--14------18--16---------------------|
A|--------------------------------------------16-----------------------------|
F|---------------------------------------------------------------------------|
C|---------------------------------------------------------------------------|
G|---------------------------------------------------------------------------|
C|---------------------------------------------------------------------------|

d|---------------------------------------------------------------------------|
A|----11--9---9~--12h14p11--9------------------------------------------------|
F|---------8------------------11\8p8h6--8--9--11--9--11--13--11--9--11--9--8~|
C|---------------------------------------------------------------------------|
G|---------------------------------------------------------------------------|
C|---------------------------------------------------------------------------|


************************************

| /   slide up
| \   slide down
| h   hammer-on
| p   pull-off
| ~   vibrato
| +   harmonic
| x   Mute note
| b   Bend
| pb  Pre-bend
| br  Bend release
| pbr Pre-bend release
| brb Bend release bend

************************************
Добавлено: 17.12.2015
Другие материалы по этой песне:

Страница создана 15.04.2012
http://primanota.ru/terranigma/underworld-chords.htm
Привет, Гость.
Предлагаем пройти революционный курс по гитаре.
Подарок от PrimaNota.Ru, забирай!