PrimaNota.ru - самый крупный в мире бесплатный архив песенных текстов, аккордов, табулатур и нот


Terra Naomi - Flesh For Bones - таба, видео

Регистрация Запомнить меня
Войти через:  Facebook Google Twitter Vk Yandex Mail.ru

Terra Naomi - Flesh For Bones - таба, видео

Печатать
Просмотров: 107
-------------------------------------------------------------------------------
                        FLESH FOR BONES – Terra Naomi
-------------------------------------------------------------------------------
Tabbed by: Krista
Email: leavethepieces@gmail.com

Tuning: dAGDAD (high to low) with a capo on first.

First of all, I'd just like to let everyone know this is my first real tab... I'm  only 
with chords, so if this isn't the best, forgive me!  Obviously it won't perfect, no can 
every note in the right place, but I tried. Let me know if you any errors.

I know how I set it up might seem kind of confusing - but if I had put everything in, 
be incredibly long! So hopefully this works out.

Intro:

d|-------------------------------------------------|
A|-------------------------------------------------|
G|-----0-------------------------------------------|
D|-------4---------5-----------0-----5-5-5p4-4p0-0-|
A|---4-----------5---5—--5---0---0-----------------|
D|-4-------4/5-5-------5---0-------0---------------|

d|-------------------------------------------------|
A|-------------------------------------------------|
G|-------------------------------------------------|
D|-----4-----------5/7-7-------0-----5-5-5p4-4p0-0-|
A|---4---4-------5-------7---0---0-----------------|
D|-4-------4/5-5-----------0-------0---------------|

d|-------------------------------------------------|
A|-------------------------------------------------|
G|-------------------------------------------------|
D|-----4-----------5-----------0-----5-5-5p4-4p0-0-|
A|---4---4-------5---5—--5---0---0-----------------|
D|-4-------4/5-5-------5---0-------0---------------|

d|-------------------------------------------------|
A|-------------------------------------------------|
G|-------------------------------------------------|
D|-----4-----------5/7-7-------0-----5-5-5p4-4p0-0-|
A|---4---4-------5-------7---0---0-----------------|
D|-4-------4/5-5-----------0-------0---------------|

Verse:

d|-------------------------------------------------|
A|-------------------------------------------------|
G|-------------------------------------------------|
D|-----4-----------5-----------0-----5-5-5p4-4p0-0-|
A|---4---4-------5---5—--5---0---0-----------------|
D|-4-------4/5-5-------5---0-------0---------------| x3

         I'm sitting here frozen...
         Considering the weight...
         One by one sealed every...

d|-------------------------------------------------|
A|-----------------------------------0-----0-------|
G|-----------------------------------7-----7-------|
D|-----4-----------5-----------7-------7-----------|
A|---4---4-------5---5—------7---7-------7---------|
D|-4-------4/5-5-------5/7-7-------7---------7\5---| x1

         Find my way back...

Pre-Chorus:

d|-------------------------------------------------|
A|-----------------------------------0-----0-------|
G|-----------------------------------9-----9-------|
D|-----5-----------7-----------9-------9-----------|
A|---5---5-------7---7—------9---9-------9---------|
D|-5-------5/7-7-------7/9-9-------9---------9\5---| x2

       And I'm burning all...
       To illuminate my path...

d|-------------------------------------------------|
A|-------------------------------------------------|
G|-------------------------------------------------|
D|-----5-----------7-----------9-------------------|
A|---5---5-------7---7—------9---9-----------------|
D|-5-------5/7-7-------7/9-9-------9/14------------| x1

       And even if it's true...

d|--------------------------------------------------|
A|--------------------------------------0-----0-----|
G|--------------------------------------7-----7-----|
D|--------4-----------5-----------7-------7---------|
A|------4---4-------5---5—------7---7-------7-------|
D|-14\4-------4/5-5-------5/7-7-------7---------7\5-| x1

          I would still have...

Chorus:

d|-------------------------------------------------|
A|-----------------------------------0-----0-------|
G|-----------------------------------9-----9-------|
D|-----5-----------7-----------9-------9-----------|
A|---5---5-------7---7—------9---9-------9---------|
D|-5-------5/7-7-------7/9-9-------9---------9\5---| x4

     You know baby I would...
     I would, I would...
     You know baby I would...
     I would, I would...

Riff:

d|-------------------------------------------------|
A|-------------------------------------------------|
G|-------------------------------------------------|
D|-----5-----------7-----------0-----5-5-5p4-4p0-0-|
A|---5---5-------7---7—--7---0---0-----------------|
D|-5-------5/7-7-------7---0-------0---------------|

d|-------------------------------------------------|
A|-------------------------------------------------|
G|-------------------------------------------------|
D|-----4-----------5/7-7-------0-----5-5-5p4-4p0-0-|
A|---4---4-------5-------7---0---0-----------------|
D|-4-------4/5-5-----------0-------0---------------|

Outro:

d|-------------------------------------------------|
A|-----------------------------------0-----0-------|
G|-----------------------------------9-----9-------|
D|-----5-----------7-----------9-------9-----------|
A|---5---5-------7---7—------9---9-------9---------|
D|-5-------5/7-7-------7/9-9-------9---------9\5---| x2

     You know baby I would...
     I would, I would... (I would...)

d|-------------------------------------------------|
A|-----------------------------------0-----0-------|
G|-----------------------------------9-----9-------|
D|-----5-----------7-----------9-------9-----------|
A|---5---5-------7---7—------9---9-------9---------|
D|-5-------5/7-7-------7/9-9-------9---------9\5---| x1

     I would, I would, I would...

d|-------------------------------------------------|
A|-------------------------------------------------|
G|-----------------7-----------0-----0-----0-------|
D|-----5-----------7-------------------------------|
A|---5---5-------7---7—------9---9-----9-----9-----|
D|-5-------5/7-7-------7/9-9-------9-----9-----9---| x1

     I would, I would, I would

| /  slide up
| \  slide down
| h  hammer-on
| p  pull-off
| ~  vibrato
| +  harmonic
| x  Mute note
===============================================================================

Here's what to play:

Intro
Verse (I'm sitting here frozen)
Pre-Chorus
Chorus
Riff
Verse (I carry with me on my way)
Pre-Chorus
Chorus
Riff
Verse (I chased your memory)
Pre-Chorus
Chorus
Outro

Verse 1:

I'm sitting here frozen in this bed I made
Considering the weight of the bricks I laid now that I'm through
One by one sealed every crack that I could slip between to find my way back
Find my way back home to you

Pre-Chorus:

And I'm burning all my bridges
with these matches I light
To illuminate my path to what is right
And even if it's true what they say
that you can't go back home
once you've cast it away
I would still have left tonight

Chorus:

You know baby I would be with you if I could
To trade my flesh for your bones
I would, I would, I would, I would, I would…

You know baby I would be with you if I could
To trade my flesh for your bones
I would, I would, I would, I would, I would…

Verse 2:

I carry with me on my way
All the ghosts of all the love
that I let slip away
The heavy weight of promises made
That if I could exonerate
I might just lift off today

[Pre-Chorus]

[Chorus]

Verse 3:

I chased your memory from my mind
But every song I write is just a wish to find you, near or far
Through all the tears and all the time
That I been running blind
I still ain't got to where you are

[Pre-Chorus]

[Chorus]

Outro:

You know baby I would be with you if I could
To trade my flesh for your bones
I would, I would, I would, I would, I would…

I would, I would, I would, I would, I would
I would, I would, I would, I would, I would, I would
Добавлено: 23.07.2012
Другие материалы по этой песне:
  • Аккорды и текст

Страница создана 23.07.2012
http://primanota.ru/terra-naomi/flesh-for-bones-chords.htm
Привет, Гость.
Предлагаем пройти революционный курс по гитаре.
Подарок от PrimaNota.Ru, забирай!