PrimaNota.ru - самый крупный в мире бесплатный архив песенных текстов, аккордов, табулатур и нот


Terje Rypdal - ørnen - таба, видео

Регистрация Запомнить меня
Войти через:  Facebook Google Twitter Vk Yandex Mail.ru

Terje Rypdal - ørnen - таба, видео

Печатать
Просмотров: 180
Уроки эстрадного вокала в Санкт-Петербурге
Ørnen - Terje Rypdal


This is not a complete tab, but it gives you an idea. Use your ears for the rest. Good luck!


A
||: G G7#5 |  G6  G7#5 |  G G7#5  | G6  G7   | C  /B |  F*     |

|  G  G7#5 |  G6  G7#5 |  Amb5*   |  Abmaj7  |  G  F | G  F  :||

B
| B#5* | Amb5/Eb  Abmaj7 | Cm Abmaj7 | C  Abmaj7  |

| B#5  |    Eb     Abmaj7      | Cm Abmaj7 | Cm Abmaj7 |


A (solo)

B (solo)

A (Chorus)

||: G F :|| (fade out)   



   G  G7#5      G6   G7   C
E----------------------------------------------------------------------|
B--3--0-----0----0----8------------------------------------------------|
G--4--0-----0----0----9------------------------------------------------|
D-----5-----5----------------------------------------------------------|
A-----6-----7----8-----------------------------------------------------|
E--3------------------8------------------------------------------------|

 
   F*                                       G
E----------------------------------------------------------------------|
B--------------3-4-----------------3-----------------------------------|
G--4s5---4-3-2-----2----0-2p0--2s4-------------------------------------|
D----------------------------------------------------------------------|
A----------------------------------------------------------------------|
E----------------------------------------------------------------------|


   Amb5     Abmaj7                G     F...
E----------------------------------------------------------------------|
B----------------------------------------------------------------------|
G--0-2s4-5s7p0--------------3p0--3s4h0---------------------------------|
D--1-------------------------------------------------------------------|
A--0-------------------------------------------------------------------|
E----------------------------------------------------------------------|


  B#5*
E-7-----------------------------15-14---------------------------------|
B-8---10---8------------------13-------------13--15s16-13-------------|
G-8----8-------8-----8-7-5--------------------------------------------|
D-9----9--------------------------------------------------------------|
A---------------------------------------------------------------------|
E---------------------------------------------------------------------|

Добавлено: 17.03.2015
Вам также может быть интересно:
Другие материалы по этой песне:
  • Аккорды и текст

Страница создана 17.03.2015
http://primanota.ru/terje-rypdal/rnen-chords.htm
Привет, Гость.
Предлагаем пройти революционный курс по гитаре.
Подарок от PrimaNota.Ru, забирай!