PrimaNota.ru - самый крупный в мире бесплатный архив песенных текстов, аккордов, табулатур и нот


Terje Rypdal - The Return Of Per Ulv - таба, видео

Регистрация Запомнить меня
Войти через:  Facebook Google Twitter Vk Yandex Mail.ru

Terje Rypdal - The Return Of Per Ulv - таба, видео

Печатать
Просмотров: 175
Уроки эстрадного вокала в Санкт-Петербурге
The Return of Per Ulv - Terje Rypdal

Intro:

   Asus2   /F /G  /D      Asus2 /F  /G  /D      Fmaj7/D /E /F /F#  G6
-------0---------------------0---------------------0----------------0--|
B----0----------------------0---------------------1-----------------3--|
G---2----------------------2---------------------2------------------4--|
D--2----------------------2---------------------3-------------------5--|
A----------------------------------------------------------------------|
E----------------------------------------------------------------------|

   Fmaj7/D E F F#   G        C
E-----0---------------0------0-----------------------------------------|
B----1---------------3-------1-----------------------------------------|
G---2---------------4--------0-----------------------------------------|
D--3---------------5---------2-----------------------------------------|
A----------------------------3-----------------------------------------|
E----------------------------------------------------------------------|


Chorus: Same chords as intro

E--5------------------5---------------5-------------------5------------|
B--------5-8-5------8---4s5----------5-------5-8--5-----8---4s5--------|
G--------------7-5-----------7------7----5-7--------7-5---------7------|
D----------------------------------------------------------------------|
A----------------------------------------------------------------------|
E----------------------------------------------------------------------|

E----------------------------------------------------------------------|
B-------5-------5-8------5-8s10-5-8-----------------5------5-8---------|
G-----5-------5--------5------------7-------------5------5-------------|
D---7-------7--------7--------------------------7------7---------------|
A-8-------------------------------------------8------------------------|
E----------------------------------------------------------------------|

E----------------------------------------------------------------------|
B------5-8s10-5--------5-----------------------------------------------|
G----5-----------7-5-7---5---5-----------------------------------------|
D--7-----------------------7-------------------------------------------|
A----------------------------------------------------------------------|
E----------------------------------------------------------------------|


Bass solo 1:

     Asus2 - Dm6- E7 (or Fdim) - Asus2    repeat

E----0-------1-----0-----4-7-------------------------------------------|
B----0-------0-----3-----3-6-------------------------------------------|
G----2-------2-----1-----4-7-------------------------------------------|
D----2-------0-----2-----3-6-------------------------------------------|
A----0-------------2---------------------------------------------------|
E------------------0---------------------------------------------------|


Chorus:


Bass solo 2:


Chorus with harmonics:

E-------------12-------------------------12----------------------------|
B---------12------------------------12---------------------------------|
G----------------------------------------------------------------------|
D------7------------------------7--------------------------------------|
A--7------------------------7------------------------------------------|
E----------------------------------------------------------------------|


E----------------------------------------------------------------------|
B-------5-------5-8------5-8s10-5-8-----------------5------5-8---------|
G-----5-------5--------5------------7-------------5------5-------------|
D---7-------7--------7--------------------------7------7---------------|
A-8-------------------------------------------8------------------------|
E----------------------------------------------------------------------|


E----------------------------------------------------------------------|
B------5-8s10-5--------5-----------------------------------------------|
G----5-----------7-5-7---5---5-----------------------------------------|
D--7-----------------------7-------------------------------------------|
A----------------------------------------------------------------------|
E----------------------------------------------------------------------|


Guitar solo: Same chords as bass solo


Chorus:

E-------0-----------------5--------------5-----------------------------|
B------0----------------5----5-8-5-----8---4s5-------------------------|
G-----2---------------7------------7-5---------7-----------------------|
D----2-----------------------------------------------------------------|
A---0------------------------------------------------------------------|
E----------------------------------------------------------------------|


E----------------------------------------------------------------------|
B-------5-------5-8------5-8s10-5-8-----------------5------5-8---------|
G-----5-------5--------5------------7-------------5------5-------------|
D---7-------7--------7--------------------------7------7---------------|
A-8-------------------------------------------8------------------------|
E----------------------------------------------------------------------|


E----------------------------------------------------------------------|
B------5-8s10-5--------5-----------------------------------------------|
G----5-----------7-5-7---5---5-----------------------------------------|
D--7-----------------------7-------------------------------------------|
A----------------------------------------------------------------------|
E----------------------------------------------------------------------|

Bridge: 

  C
E----------------------12------------15---13h12----12------------------|
B-12---10---12---13-------15-------13-----------15----12---13---10-----|
G----------------------------------------------------------------------|
D----------------------------------------------------------------------|
A-10---8----10---12----------------------------------------------------|
E----------------------------------------------------------------------|


                            A      F     G          D          A
E----------------------------------------------------------------------|
B-10-10-10s8---8---6-10-10---13h10---12-12-10-12--13r12--10-10---------|
G----------------------------------------------------------------------|
D----------------------------------------------------------------------|
A----------------------------------------------------------------------|
E----------------------------------------------------------------------|


Chorus:
Добавлено: 17.03.2015
Вам также может быть интересно:
Другие материалы по этой песне:
  • Аккорды и текст

Страница создана 17.03.2015
http://primanota.ru/terje-rypdal/return-of-per-ulv-chords.htm
Привет, Гость.
Предлагаем пройти революционный курс по гитаре.
Подарок от PrimaNota.Ru, забирай!